Home » P » Phair Liz »

Phair Liz - Mesmerizing Tabs

Artists:  A B C D E F G H I J K L M N O P Q R S T U V W X Y Z # 

Mesmerizing Tabs

(ver. 2) Click to play this song!
Phair Liz
MESMERIZING

h = hammer on
p = pull off
/ = slide up
\ = slide down
~ = vibrato
b = bend (bend to note after the "b")
rb=release bend

Capo 3

I.
  E         C   D               G               Asus    A?
|-----------------------------------------------------------------|
|-----0---x-----------0-------------------------3---3-3-----------|
|-----1---x-0---0---x-0---------------0-----0-x-2---2-2-2---2-2-2-|
|-----2---x-5/7-7---x-7---------------0-----0-x-2---2-2-2---2-2-2-|
|-----2---x-3/5-5---x-5-----5---------2-----2-x-0---0-0-4---4-4-4-|
|-0-0-------------------------0-3---3-3---3-3-x---------5---5-5-5-|

II.
  E        C   D               F               B/F#
|--------------------------------------------------------------|
|----0---x-----------0-----------------------------------------|
|----1---x-0---0---x-0-----------------------------------------|
|----2---x-5/7-7---x-7-------------------------1---1-1-1-1-1-1-|
|----2---x-3/5-5---x-5-----5-------3-3-3-3-3-3-2---2-2-2-2-2-2-|
|-0-0------------------------0-1---1-1-1-1-1-1-2---2-2-2-2-2-2-|

III.
  E
|---------------------------------|
|---------------------------------|
|-----1-------1-------1-----2-1---|
|-----0h2-----0h2-----0h2-2-2-0h2-|
|-2-2-0h2-2-2-0h2-2-2-0h2-2-0-0h2-|
|-0-0-0---0-0-0---0-0-0---0---0---|

Intro: play I twice
       play II
       play III twice

E                           A
You said things I wouldn^Òt say
   B            E
Straight to my face, boy
              
You tossed the egg up
     A          B         E
And I found my hands in place, boy
                     A      B         E
After backing up as far as you could get
                       A         B        E
Don^Òt you know nobody parts two rivers met

  E                                 G               G/F#
          Don^Òt you know I^Òm very   happy                       you
|-------------------------------------------------------------------|
|-------------------------------------------------------------------|
|-------------------------------------------------------------------|
|-2-2-2-2-2-2-2-2-2-2-2-2-2-2-2-2-2-0-0-0-0-0-0-0-0-0-0-0-0-0-0-0-0-|
|-2-2-2-2-2-2-2-2-2-2-2-2-2-2-2-2-2-2-2-2-2-2-2-2-2-x-x-x-x-x-x-x-x-|
|-0-0-0-0-0-0-0-0-0-0-0-0-0-0-0-0-0-3-3-3-3-3-3-3-3-2-2-2-2-2-2-2-2-|

  E                                 G       G/F#    C       D
  know me well          I^Òm even    ha-     ppi-    er      I
|-------------------------------------------------------------------|
|-------------------------------------------------------------------|
|---------------------------------------------------0-------0-------|
|-2-2-2-2-2-2-2-2-2-2-2-2-2-2-2-2-2-0-0-0-0-0-0-0-0-5-------5/7-----|
|-2-2-2-2-2-2-2-2-2-2-2-2-2-2-2-2-2-2-2-2-2-x-x-x-x-3-------3/5-----|
|-0-0-0-0-0-0-0-0-0-0-0-0-0-0-0-0-0-3-3-3-3-2-2-2-2-----------------|

like it (play II twice)

chords for this part(EADGBe):
A    XX765X
Asus X02230
A?   5422XX
D    X5700X
E    012200

     A           E
With all of the time
        D
In the world to spend it
 A          E
Wild and unwise
   D
I wanna be
 Asus A? (like the end of I)
Mesmerizing too

Play I 4 times with solo:
|-5b7----5b7-----7r5-3-3h5---5---5---5-3---3---------------------------------|
|-(hold
bend)----------------------------5-----5---3h5-5-5-5-----3-5---5-5-5-|
|--------------------------------------------------------------4-------------|
|----------------------------------------------------------------------------|
|-------------------------------------------------------(with
variations)----|
|----------------------------------------------------------------------------|

     A           E
With all of the time
        D
In the world to spend it
 A          E
Wild and unwise
   D
I wanna be
 Asus A?
Mesmerizing too

Play I 4 times with solo
Play A  E
     A  E
     A  E
     A  A
Play I twice, end on E.
            
Submit corrections

↑ Back to top | Tablatures and chords for acoustic guitar and electric guitar, ukulele, drums are parodies/interpretations of the original songs. You may use it for private study, scholarship, research or language learning purposes only