» » »

Pet Shop Boys - Heart Chords

Artists:  A B C D E F G H I J K L M N O P Q R S T U V W X Y Z # 

Heart Chords

(ver. 1) Click to play this song!
Pet Shop Boys
 Rating:
4.3/5 (21 vote)

 Heart lessons Tabs too difficult? Try these video lessons and learn fast
 
                [Intro] (0:00)

Dm7 Em7      Dm7 G
       Beat       Heartbeat



{Intro with riff] (0:08)

   Am     Em          Dm     Em
e------------------|------------------|
b----1-------------|----1-------------|
g--2-----------0---|--2-----------0---|
d---------2-2------|---------2-2------|
a------------------|------------------|
e------------------|------------------|x4



[Verse] (0:24)

Am                     F                  Em
Every time I see you something happens to me
Am                       Dm          Em
Like a chain reaction between you and me



[Prechorus] (0:40)

Dm7                         Em7
My heart starts missing a beat
Dm7                       G
My heart starts missing a beat



[Chorus] (0:47)

       Am  Em
Every time
  Dm          G       Am  Em
Oh oh oh, every time
  Dm          G
Oh oh oh, every time



[Verse] (0:56)

Am                               F                      Em
If I didn't love you,  I would look around for someone else
Am                         Dm                 Em
But every time I see you, You have the same effect



[Prechorus] (1:11)

Dm7                         Em7
My heart starts missing a beat
Dm7                       G
My heart starts missing a beat



[Chorus] (1:19)

       Am  Em
Every time
  Dm          G       Am  Em
Oh oh oh, every time
  Dm          G
Oh oh oh, every time
Am Em Dm G



[Bridge] (1:32)

           F            Em                F#m
Every time I hear your heart beat next to me
F         Am
  I'm in love with you
  Dm          Em
I mean what I say
           Am
  I'm in love with you
        Dm
And you don't know
         Em               Am
What it means to be with you



[Break] (1:50)

Am
Beat, Beat, Beat, Heartbeat



[Bridge] (1:58)

   Am     Em          Dm     Em
e------------------|------------------|
b----1-------------|----1-------------|
g--2-----------0---|--2-----------0---|
d---------2-2------|---------2-2------|
a------------------|------------------|
e------------------|------------------|x4

n.c
Beat, Beat, Beat, Heartbeat



[Verse] (2:22)

Am                    Dm                Em
Every time I see you, no matter what we do
Am                            Dm               Em
There's a strange reaction,  can you feel it too?



[Prechorus] (2:37)

Dm7                         Em7
My heart starts missing a beat
Dm7                       G
My heart starts missing a beat



{Chorus] (2:45)

       Am  Em
Every time
  Dm          G       Am  Em
Oh oh oh, every time
  Dm          G
Oh oh oh, every time



[Bridge] (2:54)

           F            Em                F#m
Every time I hear your heart beat next to me
F         Am
  I'm in love with you
  Dm          Em
I mean what I say
           Am
  I'm in love with you
        Dm
And you don't know
         Em               Am
What it means to be with you



[Outro] (3:12)

   Am     Em            Dm     Em
e--------------------|------------------|
b----1---------------|----1-------------|
g--2-----------0-----|--2-----------0---|
d---------2-2--------|---------2-2------|
a--------------------|------------------|
e--------------------|------------------|x4
                Oh oh oh, every time



[Outro] (3:28)
   Am     Em            Am     Em
e--------------------|------------------|
b----1---------------|----1-------------|
g--2-----------0-----|--2-----------0---|
d---------2-2--------|---------2-2------|
a--------------------|------------------|
e--------------------|------------------|x4
          Beat               Beat



[Outro] (3:42)
   Am     Em            Am     Em
e--------------------|------------------|
b----1---------------|----1-------------|
g--2-----------0-----|--2-----------0---|
d---------2-2--------|---------2-2------|
a--------------------|------------------|
e--------------------|------------------|x4
          Beat             Hearrbeat
            
Submit corrections


        Heart lessons Hard to play? Try these video lessons and learn fast Heart lessons
        
↑ Back to top | Tablatures and chords for acoustic guitar and electric guitar, ukulele, drums are parodies/interpretations of the original songs. You may use it for private study, scholarship, research or language learning purposes only