» » »

Pete Yorn - For Us Tabs

Artists:  A B C D E F G H I J K L M N O P Q R S T U V W X Y Z # 

For Us Tabs

(ver. 1) Click to play this song!
Pete Yorn
 Rating:
3.3/5 (6 votes)

 For Us lessons Tabs too difficult? Try these video lessons and learn fast
 
                Pete Yorn
Nightcrawler

I couldn't find one so I made a simple one, just bar chords listen for rhythm.


                    Verse

e------------------------------------------------------|
b------------------------------------------------------|
g------------------------------------------------------|
d----7-7-7--9---10-10-10-------------------------------|
a----5-5-5--7----8--8--8-----0---10-10-10----9---5-5-5-|
E----------------------------0----8--8--8----7---3-3-3-|


                   Chorus

e-------------------------------------------------------|
b-------------------------------------------------------|
g-------7--------5--------------------------------------|
d-------7---7----5----5---------------------------------|
a-------5---7----3----5---------------------------------|
E-----------5---------3---------------------------------|

"This life is...."  a ,c ,g

e----------------------------------------|
b----------------------------------------|
g----------------------------------------|
d---------5------------------------------|
a----7----3---5--------------------------|
E----5--------3--------------------------|


   A         C          G
  This life is like the drug

I don't have the entire thing done as you can see, but if you know it, I think it's the 
part, submit it.
            
Submit corrections


        For Us lessons Hard to play? Try these video lessons and learn fast For Us lessons
        
↑ Back to top | Tablatures and chords for acoustic guitar and electric guitar, ukulele, drums are parodies/interpretations of the original songs. You may use it for private study, scholarship, research or language learning purposes only