» » »

Pete Yorn - Carlos Don Let It Go To Your Head Tabs

Artists:  A B C D E F G H I J K L M N O P Q R S T U V W X Y Z # 

Carlos Don Let It Go To Your Head Tabs

(ver. 1) Click to play this song!
Pete Yorn
 Rating:
4/5 (4 votes)

 Carlos Don	 Let It Go To Your Head lessons Tabs too difficult? Try these video lessons and learn fast
 
                Artist – Pete Yorn
Album – Day I Forgot 
© SONY Music Entertainment

Here’s a quick tab of this pretty rocking tune off of a great 
album!


Intro/Verse Riff
E----------------------------------------------------------------
B----------------------------------------------------------------
G----------------------------------------------------------------
D----------------------------------------------------------------
A---------------3--0-----0-0—5--3--0--------------------------
E----0--3--5-----------------------------3--5-5--------------



Chorus
E----0-0-0-0-0-0-0-0-0-0-0-0-0-0-0-0-0-0------------------
B----0-0-0-0-0-0-0-0-0-0-0-0-0-0-0-0-0-0------------------
G----7-7-7-7-7-7-7-9-9-5-5-5-5-5-5-5-7-7------------------
D----7-7-7-7-7-7-7-9-9-7-7-7-7-7-7-7-7-7-------------------
A----5-5-5-5-5-5-5-7-7-7-7-7-7-7-7-7-5-5-------------------
E----5-5-5-5-5-5-5-7-7-5-5-5-5-5-5-5-5-5-------------------

E----0-0-0-0-0-0-0-0-0-0-0-0-0-0-0-0-0-0-0----------------
B----0-0-0-0-0-0-0-0-0-0-0-0-0-0-0-0-0-0-0----------------
G----5-5-5-5-5-5-5-5-5-5-5-5-5-5-5-5-5-5-5b--------------
D----5-5-5-5-5-5-5-7-7-5-5-5-5-5-5-5-5-5-5----------------
A----3-3-3-3-3-3-3-7-7-3-3-3-3-3-3-3-3-3-3----------------
E----3-3-3-3-3-3-3-5-5-3-3-3-3-3-3-3-3-3-3----------------
            
Submit corrections


        Carlos Don	 Let It Go To Your Head lessons Hard to play? Try these video lessons and learn fast Carlos Don	 Let It Go To Your Head lessons
        
↑ Back to top | Tablatures and chords for acoustic guitar and electric guitar, ukulele, drums are parodies/interpretations of the original songs. You may use it for private study, scholarship, research or language learning purposes only