Home » P » Peter Tosh »

Peter Tosh - Where You Gonna Run Bass

Artists:  A B C D E F G H I J K L M N O P Q R S T U V W X Y Z # 

Where You Gonna Run Bass

(ver. 1) Click to play this song!
Peter Tosh
 Title - Where You Gonna Run
 Artist - Peter Tosh
 Album -  Mama Africa


 I learned this a couple of days ago and thought i'd tab it out
 coz it's pretty hard and there's only one other version up,
 which is close but not quite right and this is correct note for note.
 Please e-mail for comments or more tabs.

/=slide up  (7)=let ring  h=hammer on

intro
G|---/7-5-------/(7)--|
D|--------7-5-3-------|
A|--------------------|
E|--------------------|


chorus/verse (main riff) play 4 times
G|-----------------------------|-----------------------------|
D|-----3-----------------------|----3------------------------|
A|--535----------------------3-|-535-----------111-313----3--|
E|-------0-1--1---333-535-3h5--|------0-1--1-----------3h5---|


bridge ('the world is faced with problems..')
G|----------------------------------------------------------|
D|----------------------------------------------------------|
A|--11--------1-1--33--------3-3-3h5-3--3h(5)--3h5-3--3--2--|
E|----3-3-1-1--------5-5-3-3----------5-------------5-------|

  ------------------------------------------------------|
  ------------------------------------------------------|
  -11--------1-1--33--------3-3-3h5-3--3h(5)--3h5-3--3--|
  ---3-3-1-1--------5-5-3-3----------5-------------5----|

play main riff 4 times

play bridge

play main riff 4 times (over sax solo)

play bridge


G|---/7-5-------/(7)-fast slide up & down-|
D|--------7-5-3---------------------------|
A|----------------------------------------|
E|----------------------------------------|

play out on main riff
            
Submit corrections

↑ Back to top | Tablatures and chords for acoustic guitar and electric guitar, ukulele, drums are parodies/interpretations of the original songs. You may use it for private study, scholarship, research or language learning purposes only