Home » P » Peter Tosh »

Peter Tosh - Wanted Dread And Alive Bass

Artists:  A B C D E F G H I J K L M N O P Q R S T U V W X Y Z # 

Wanted Dread And Alive Bass

(ver. 1) Click to play this song!
Peter Tosh
Bassist: Robbie “Bassspeare” Shakespeare

Great song, very simple. I have included the varations on the bass which are very 
except the final chorus varation. He slides to the twelth fret every once in a while and that 

Standard Tuning

Verse
|-----------------------------------------------------|
|-7-7-7-----------7------------7-7-7------------------|
|----------9-7--9----------------------9-7--9---------|
|-----------------------------------------------------|

Chorus
|-----------------------------------------------------|
|-----------------------------------------------------|
|-0-----4--7--5------0-0---0----4--7--5---------------|
|-----------------------------------------------------|

Varations:

1:44 and 3:02 Verse Varation (Just An Octave Lower)
|-----------------------------------------------------|
|-7-7-7-------------7---------------------------------|
|----------9--7--9-------------0-0-0------------------|
|-----------------------------------------2-0--2------|

1:58 Chorus-Run (Two Notes at End)
|-----------------------------------------------------|
|---------------------------------------------7-------|
|-0-----4--7--5------0-0---0----4--7--5----------7----|
|-----------------------------------------------------|

2:33 Variation (One Note At End)
|-----------------------------------------------------|
|-7-7-7-------------7----------7-7-7---------------7--|
|----------9--7--9---------------------9-7--9---------|
|-----------------------------------------------------|

3:47 Chorus Varation (Important Change!)
|-----------------------------------------------------|
|-7-7-7-----------------------------------------------|
|---------4-----5----0--0---0---4-7--5----------------|
|------------5----------------------------------------|
            
Submit corrections

↑ Back to top | Tablatures and chords for acoustic guitar and electric guitar, ukulele, drums are parodies/interpretations of the original songs. You may use it for private study, scholarship, research or language learning purposes only