Home » P » Peter Maffay »

Peter Maffay - Nessaja Tabs

Artists:  A B C D E F G H I J K L M N O P Q R S T U V W X Y Z # 

Nessaja Tabs

(ver. 1) Click to play this song!
Peter Maffay
-----------------------------------------------------------------------
-----------------------------------------------------------------------

Tuning: Standard

e---------------------------------------------------------------------|
B----5-3-5-3-5-5b6-3---8-6p5-6\3--------------------------------------|
G--5-----------------5-----------5-5----------------------------------|
D---------------------------------------------------------------------|
A---------------------------------------------------------------------|
E---------------------------------------------------------------------|

e---------------------------------------------------------------------|
B----5-3-5-3-5-5b6-3---8-6p5-6\3--------------------------------------|
G--5-----------------5-----------5-5----------------------------------|
D---------------------------------------------------------------------|
A---------------------------------------------------------------------|

e-----------------12---------------------12---------------------------|
B--14-14-14-14b15----12---14-14-14-14b15----12------------------------|
G----------------------------------------------14---------------------|
D---------------------------------------------------------------------|
A---------------------------------------------------------------------|
E---------------------------------------------------------------------|

e---------------------------------------------------------------------|
B--------------14-14/15-12--------------------------------------------|
G--11h14-11h14-------------14-14---11h14-14-12p11----11----11----11---|
D-------------------------------------------------14----12----14----12|
A---------------------------------------------------------------------|
E---------------------------------------------------------------------|

***********************************************************************

| /   slide up
| \   slide down
| h   hammer-on
| p   pull-off
| ~   vibrato
| +   harmonic
| x   Mute note
| b   Bend
| pb  Pre-bend
| br  Bend release
| pbr Pre-bend release
| brb Bend release bend

***********************************************************************
            
Submit corrections

↑ Back to top | Tablatures and chords for acoustic guitar and electric guitar, ukulele, drums are parodies/interpretations of the original songs. You may use it for private study, scholarship, research or language learning purposes only