Home » P » Peter Gabriel »

Peter Gabriel - Games Without Frontiers Tabs

Artists:  A B C D E F G H I J K L M N O P Q R S T U V W X Y Z # 

Games Without Frontiers Tabs

(ver. 1) Click to play this song!
Peter Gabriel
 Rating:
4/5 (4 votes)
                My very first tab! well half tab should i say.
I have the intro, first verse and chorus.
Iv started to do tabs myself cuz i get p**sed when i see " 55 Results 
Found" and theres blimin chords!!!!!!!!

Peter Gabriel
Key: A# Minor
Guitar: Standard Tuning

My symbols i use:
/ = slide up
\ = slide down
: = play quiet
! = bend up
i = bend down
(12) = harmonic
<12> = artificial harmonic

Intro:
|-------------------------------------------------------------------|
|----3/8----------------------------------:3/8:---------------------|
|-------------------------------------------------------------------|
|-------------------------------------------------------------------|
|-------------------------------------------------------------------|
|-------------------------------------------------------------------|

|----------------14\13-13-11----------------11----------------------|
|----3/8---------------------------11-14-11----11-------------------|
|-------------------------------------------------------------------|
|-------------------------------------------------------------------|
|-------------------------------------------------------------------|
|-------------------------------------------------------------------|
(x3)

|----------------14\13-13-11----------------------------------------|
|----3/8------------------------11-14-11----------------------------|
|----------------------------------------11-------------------------|
|-------------------------------------------------------------------|
|-------------------------------------------------------------------|
|-------------------------------------------------------------------|

Verse 1:
|-------------------------------------------------------------------|
|-------------------------------------------------------------------|
|-----8/11-8----8/11-8----10-8-10----3/8----------------------------|
|-----------------------------------------8-------------------------|
|-------------------------------------------------------------------|
|-------------------------------------------------------------------|

|-------------------------------------------------------------------|
|-------------------------------------------------------------------|
|----8/10--8-----8/10--8-----8-11-8/10-8-11-8-----------------------|
|-------------------------------------------------------------------|
|-------------------------------------------------------------------|
|-------------------------------------------------------------------|

|-------------------------------------------------------------------|
|-------------------------------------------------------------------|
|------8/11-8---8/11-8--------11-10-11---8/11-8---------------------|
|-------------------------------------------------------------------|
|-------------------------------------------------------------------|
|-------------------------------------------------------------------|

|-------------------------------------------------------------------|
|-------------------------------------------------------------------|
|------8/10-8-----8/10-8------8-11-8/10-8-11-8----------------------|
|-------------------------------------------------------------------|
|-------------------------------------------------------------------|
|-------------------------------------------------------------------|

Chorus
|-------------------------------------------------------------------|
|-------------------------------------------------------------------|
|------11---10----8-----------6-------8-----------------------------|
|-------------------------------------------------------------------|
|-------------------------------------------------------------------|
|-------------------------------------------------------------------|
            
Submit corrections

↑ Back to top | Tablatures and chords for acoustic guitar and electric guitar, ukulele, drums are parodies/interpretations of the original songs. You may use it for private study, scholarship, research or language learning purposes only