Home » P » Peter Gabriel »

Peter Gabriel - And Through The Wire Tabs

Artists:  A B C D E F G H I J K L M N O P Q R S T U V W X Y Z # 

And Through The Wire Tabs

(ver. 1) Click to play this song!
Peter Gabriel
 Rating:
3.8/5 (21 vote)
                INTRO / VERSE
  A           Asus4            A           Asus4
  1 + 2 + 3 + 4 + 5 + 6 + 7 +  1 + 2 + 3 + 4 + 5 + 6 + 7 +  
e|----------------------------|----------------------------|
B|2-----------3---------------|2-----------3---------------|
G|------2---------------------|------2---------------------|
D|2-2-2-2-2-2-2-2-2-2-2-2-2-2-|2-2-2-2-2-2-2-2-2-2-2-2-2-2-|
A|0-0-0-0-0-0-0-0-0-0-0-0-0-0-|0-0-0-0-0-0-0-0-0-0-0-0-0-0-|
E|----------------------------|----------------------------|

CHORUS
       D/B                               D/B
  D  D/C#   A     F#5  B5 Esus4 E   D  D/C#   A     F#5  B5 Esus4 E
  1 + 2 + 3 + 4 +  1 + 2 + 3 + 4 +  1 + 2 + 3 + 4 +  1 + 2 + 3 + 4 +
e|----------------|--------5---4---|----------------|--------5---4---|
B|3---------------|--------5---5---|3---------------|--------5---5---|
G|2---------2-----|----4---4---4---|2---------2-----|----4---4---4---|
D|0---------2-----|4---4-----------|0---------2-----|4---4-----------|
A|----4-2---0-----|4---2-----------|----4-2---0-----|4---2-----------|
E|----------------|2---------------|----------------|2---------------|
       D/B                               D/B
  D  D/C#   A     F#5  B5 Esus4 E   D  D/C#   A     F#5  B5 Esus4 E
  1 + 2 + 3 + 4 +  1 + 2 + 3 + 4 +  1 + 2 + 3 + 4 +  1 + 2 + 3 + 4 +
e|----------------|--------5---4---|----------------|--------5---4---|
B|3---------------|--------5---5---|3---------------|--------5---5---|
G|2---------2-----|----4---4---4---|2---------2-----|----4---4---4---|
D|0---------2-----|4---4-----------|0---------2-----|4---4-----------|
A|----4-2---0-----|4---2-----------|----4-2---0-----|4---2-----------|
E|----------------|2---------------|----------------|2---------------|
       D/B                               D/B
  D  D/C#   A     F#5  B5 Esus4 E   D  D/C#   A     F#5  B5 Esus4 E
  1 + 2 + 3 + 4 +  1 + 2 + 3 + 4 +  1 + 2 + 3 + 4 +  1 + 2 + 3 + 4 +
e|----------------|--------5---4---|----------------|--------5---4---|
B|3---------------|--------5---5---|3---------------|--------5---5---|
G|2---------2-----|----4---4---4---|2---------2-----|----4---4---4---|
D|0---------2-----|4---4-----------|0---------2-----|4---4-----------|
A|----4-2---0-----|4---2-----------|----4-2---0-----|4---2-----------|
E|----------------|2---------------|----------------|2---------------|
  D        E/D Dmaj7
  1 + 2 + 3 + 4 +  1 + 2 + 3 + 4 +  
e|5---------4---5-|----------------|
B|7---------5---7-|----------------|
G|7---------4---6-|----------------|
D|0---------2---0-|----------------|
A|----------------|----------------|
E|----------------|----------------|

---------------------------------------------------------------------------
CHORDS

        E-A-D-G-B-e
Asus4   x-0-2-2-3-x
A7sus4  x-0-2-2-3-3
E/D     x-x-0-1-0-0  or  x-x-0-4-5-4
Dmaj7   x-x-0-2-2-2  or  x-x-0-6-7-5 
Dmaj7   x-5-4-2-2-2  (MIDDLE 8)

---------------------------------------------------------------------------

INTRO [7/4]
| A  Asus4   | A  Asus4   |
| A  Asus4   | A  Asus4   |


CHORUS
              | D  D/C# D/B A    |
And through the wire 
F#5 B5  Esus4 E    | D  D/C# D/B A    |
      I hear  your voice
F#5 B5  Esus4   E  | D  D/C# D/B A    |
    And through the wire 
F#5 B5  Esus4 E  | D  D/C# D/B A    |
      I touch the power
F#5 B5  Esus4   E  | D  D/C# D/B A    |
    And through the wire 
F#5 B5 Esus4  E | D  D/C# D/B A    |
    I  see   your face
F#5 B5   Esus4   E  | D     E/D | Dmaj7 |
    It's through the wire


VERSE [7/4]
A                    Asus4            A      Asus4
Friday night, you're staying at home (I want you)
    A                       Asus4      A      Asus4
I'm tickling and clicking a metronome (I want you)
A                          Asus4              A      Asus4
Prowling the waterhole - I wait for the kill (I want you)
A                     Asus4      A      Asus4
Pressure's building - overspill (I want you)


CHORUS
              | D  D/C# D/B A    |
And through the wire 
F#5 B5      Esus4 E   | D  D/C# D/B A    |
        You are      secure
F#5 B5  Esus4   E  | D  D/C# D/B A    |
    And through the wire 
F#5 B5  Esus4 E  | D  D/C# D/B A    |
        We    can talk
F#5 B5  Esus4   E  | D  D/C# D/B A    |
    And through the wire 
F#5 B5  Esus4 E  | D  D/C# D/B A    |
        We    can walk
F#5 B5   Esus4   E  | D     E/D | Dmaj7 |
    It's through the wire


VERSE [7/4]
A                       Asus4          A      Asus4
Watchmaker steadies his delicate hand (I want you)
A                       Asus4            A      Asus4
For barbeque parties on blood red sands (I want you)
A                       Asus4            A      Asus4
Caught in the struggle tight on the rod (I want you)
A                      Asus4              A      A7sus4
Bring out the devil to bring out the god (I want you)


CHORUS
              | D  D/C# D/B A    |
And through the wire 
F#5 B5  Esus4 E    | D  D/C# D/B A    |
      I hear  your voice
F#5 B5  Esus4   E  | D  D/C# D/B A    |
    And through the wire 
F#5 B5  Esus4 E  | D  D/C# D/B A    |
      I touch the power
F#5 B5  Esus4   E  | D  D/C# D/B A    |
    And through the wire 
F#5 B5 Esus4  E | D  D/C# D/B A    |
    I  see   your face
F#5 B5   Esus4   E  | D     E/D | Dmaj7 |
    It's through the wire


MIDDLE 8
F#m                         Dmaj7
    Driving 'round the city rings
F#m                         Dmaj7
    Staring at the shape of things
F#m                        Dmaj7
 I talk in pictures not in words
G
Overloaded with everything we said
   A
Be careful where you tread


INTERLUDE
         | D  D/C# D/B A    | F#5 B5 Esus4 E |
Watch the wire
         | D  D/C# D/B A    | F#5 B5 Esus4 E |


CHORUS
              | D  D/C# D/B A    |
And through the wire 
F#5 B5      Esus4 E   | D  D/C# D/B A    |
        You are      secure
F#5 B5  Esus4   E  | D  D/C# D/B A    |
    And through the wire 
F#5 B5  Esus4 E  | D  D/C# D/B A    |
        We    can talk
F#5 B5  Esus4   E  | D  D/C# D/B A    |
    And through the wire 
F#5 B5  Esus4 E  | D  D/C# D/B A    |
        We    will walk


CHORUS
F#5 B5  Esus4   E  | D  D/C# D/B A    |
    And through the wire 
F#5 B5        Esus4 E      | D  D/C# D/B A    |
        We're clinging like leeches
F#5 B5  Esus4   E  | D  D/C# D/B A    |
    And through the wire 
F#5 B5 Esus4 E      | D  D/C# D/B A    |
    We push out tailormade speeches


CHORUS (outro + coda)
F#5 B5  Esus4   E  | D  D/C# D/B A    | 
    And through the wire 

| F#5 B5 Esus4 E | D  D/C# D/B A    |

F#5 B5  Esus4   E  | D  D/C# D/B A    |
    And through the wire 

| F#5 B5 Esus4 E | D  D/C# D/B A    |


F#5 B5  Esus4   E  | D  D/C# D/B A    |
    And through the wire 
F#5 B5     E      | D  D/C# D/B A    | F#5 B5 E   |
 We get so strange across the border
D   D/C# D/B   A      F#5   B5  Esus4 E   | D  D/C# D/B A    |
 We get  so  strange across the bor - der


F#5 B5     E      | D  D/C# D/B A    | F#5 B5 E   | D  D/C# D/B A    |
 We get so strange across the border
F#5 B5     E      | D  D/C# D/B A    | F#5 B5 E   | D  D/C# D/B A    |
 We get so strange across the border
F#5 B5     E      | D     E/D | Dmaj7 | A
 We get so strange ...

            
Submit corrections

↑ Back to top | Tablatures and chords for acoustic guitar and electric guitar, ukulele, drums are parodies/interpretations of the original songs. You may use it for private study, scholarship, research or language learning purposes only