Home » P » Peter Bradley Adams »

Peter Bradley Adams - For You Live Tabs

Artists:  A B C D E F G H I J K L M N O P Q R S T U V W X Y Z # 

For You Live Tabs

(ver. 1) Click to play this song!
Peter Bradley Adams
Tuning: Standard (EADGBE)

Capo 7th fret, all positions relative to capo

INTRO

e|--------------------------------------------------------------------------|
B|----------0-------------0-------------3----------3---0-------------1------|
G|--------------0-------------2-------------2--------------0-------------0--|
D|-----0------0------0------0------0------0------0-------0------2------2----|
A|-----------------------------------------------------------3-----3--------|
E|--3-----3-------3-----3-------2-----2-------2------2----------------------|

e|-----------------------------------------------------------|
B|----------0-------------3-------------0-------------1------|
G|--------------0-------------2-------------0-------------0--|
D|-----0------0------0------0------0------0------2------2----|
A|--------------------------------------------3-----3--------|
E|--3-----3-------2-----2-------2-----2----------------------|


e|-----------------------------------------------------------|
B|---------0-------------1-------------0-------------0-------|
G|-------------0-------------0-------------0-------------0---|
D|----0------0------2------2------2------2------2------2-----|
A|---------------3-----3-------------------------------------|
E|-3-----3---------------------0-----0-------0-----0---------|


e|-----------------------------------------------------------|
B|---------1--------------0-------------0-------------0------|
G|-------------0--------------0-------------0-------------0--|
D|----2------2-------0------0------0------0------0------0----|
A|-3-----3---------------------------------------------------|
E|---------------0h2----2-------3-----3-------3-----3--------|

VERSE

e|---------------------------------------------------------------------|
B|----------------------0-------------------------0-------------1------|
G|--------------------------0-------------------------0-------------0--|
D|-----0-----0-----0------0------0-----0-----0------0------2------2----|
A|------------------------------------------------------3-----3--------|
E|--3-----3-----3-----3-------2-----2-----2-----2----------------------|

e|-----------------------------------------------------------|
B|----------0-------------3-------------0-------------1------|
G|--------------0-------------2-------------0-------------0--|
D|-----0------0------0------0------0------0------2------2----|
A|--------------------------------------------3-----3--------|
E|--3-----3-------2-----2-------2-----2----------------------|

e|----------------------------------------------------------|
B|---------0-------------1-------------0-------------0------|
G|-------------0-------------0-------------0-------------0--|
D|----0------0------2------2------2------2------2------2----|
A|---------------3-----3------------------------------------|
E|-3-----3---------------------0-----0-------0-----0--------|


e|-------------------------------|
B|---------1--------------0------|
G|-------------0--------------0--|
D|----2------2-------0------0----|
A|-3-----3-----------------------|
E|---------------0h2----2--------|

INTERLUDE 1

e|----------------------------------------------------------------|
B|---------------------------1---0----------0--------------0------|
G|-------0-------0-------0----------------------0------0-------0--|
D|-----0---------------2-------2-------2------2------2-------2----|
A|---------0h2-----3-------3--------------------------------------|
E|--3----------3--------------------0-----0-------0------0--------|

e|--------------------------------------------------------------|
B|-----------1---------------0-------------0-------------0------|
G|-------0-------2-------2-------0-------------0-------------0--|
D|-----2-------0-------0-------0------0------0------0------0----|
A|--3------3----------------------------------------------------|
E|-----------------0h2-----2-------3-----3-------3-----3--------|

INTERLUDE 2

e|---------------------------------------------------------------|
B|----------0---------------1---3---------3-------3---1---0------|
G|--------------0-------0---------------------0---------------2--|
D|-----0------0-------0-------0------0------0-------0---0---0----|
A|---------------------------------------------------------------|
E|--3-----3-------3-------3-------3-----3-------3----------------|

e|----------------------------------------------------------|
B|----------3--------------0---1-------1-------------0------|
G|--------------2------2-------0--0--------0-------------2--|
D|-----0------0------0-------0----0h2----2------0------0----|
A|-----------------------------3-----3----------------------|
E|--0h2---2-------2------2-------------------3-----3--------|

e|-------------------------------------------------------------------------|
B|--0h3------3--------------0---1-------1-------------0----1--------1---0--|
G|-------2--------------2-------0-----------0--------------0---------------|
D|-----0---------0----0-------0----2------2------0------0------2------2----|
A|------------------------------3-----3--------------------3------3--------|
E|--2------2---2---2------2-------------------3-----3----------------------|

e|--------------------------------------------------------------|
B|----------0-------------0---1----------1---------------0------|
G|--------------0--------------------0-------2-------2-------0--|
D|-----2------2------2------2------2-------0-------0-------0----|
A|------------------------------3------3------------------------|
E|--0-----0-------0-----0----------------------0h2-----2--------|

e|-------------------------------|
B|----------0-------------0------|
G|--------------0-------------0--|
D|-----0------0------0------0----|
A|-------------------------------|
E|--3-----3-------3-----3--------|

FINAL VERSE ADDITION

e|-------------------------------------------------------------|
B|----------0--------------0---1---------1-------------0-------|
G|--------------0------0---------------------0-------------0---|
D|-----2------0------2-------2------2------2------0------0-----|
A|-------------------------------3-----3-----------------------|
E|--0-----0-------0------0---------------------2-----2---------|

OUTRO

e|-------------------------------------------------------------|
B|--------------------------1---0----------0---1--------1---0--|
G|-------0-------0------0--------------0------------0----------|
D|-----0--------------2-------2------0-------0----2-------2----|
A|---------0h2-----3------3--------------------3------3--------|
E|--3----------3------------------3------3---------------------|

e|-----------------------------------------------------------------|
B|----------0--------------0---1----------1---------------0--------|
G|--------------0------0--------------0-------2-------2-------0----|
D|-----2------2------2-------2------2-------0-------0-------0------|
A|-------------------------------3------3--------------------------|
E|--0-----0-------0------0----------------------0h2-----2-------3--|

INTRO

VERSE
If your wandering
Ever leads you
To a place where you don't know which road to choose
Leave your worries behind
Take the road that leads to mine
And I'll be waiting there for you

INTERLUDE 1

VERSE
If your dreaming
Ever wakes you
And you find what you were dreaming wasn't true
Wipe the sleep from your eyes
Leave those nightmares behind
And I'll dream a better dream for you

INTERLUDE 1

VERSE
If your fortune 
Ever fails you
And you're down without a dime to see you through
There's still luck that you can find
You can have a piece of mine
Yeah, I'll make a wish for you

INTERLUDE 2

VERSE
If your lover
Ever leaves you
And you find yourself with noone left to lose
You don't have to be alone
Take the road that leads you home
And I'll be waiting there for you

FINAL VERSE ADDITION

I'll be waiting there for you

OUTRO




            
Submit corrections

↑ Back to top | Tablatures and chords for acoustic guitar and electric guitar, ukulele, drums are parodies/interpretations of the original songs. You may use it for private study, scholarship, research or language learning purposes only