Home » P » Perpetual Groove »

Perpetual Groove - Tsmm Tabs

Artists:  A B C D E F G H I J K L M N O P Q R S T U V W X Y Z # 

Tsmm Tabs

(ver. 1) Click to play this song!
Perpetual Groove
Tuning:   Standard

h = hammer on
p = pull off
* = hold bend
^ = trill


Intro
e--------------------------------------------|
B--------------------------------------------|
G--------------------------------------------|
D-3-3-3-3-3-2---------3-3-3-3-3-2------------|
A-------------3-------------------3----------|
E---------------3-------------------3-3------|

Chorus/Verse/Jam
   C
e--3--X--X--3--X--X--3--X--X--3--X--X--3--X--3--X------|
B--5--X--X--5--X--X--5--X--X--5--X--X--5--X--5--X------|
G--5--X--X--5--X--X--5--X--X--5--X--X--5--X--5--X------|
D--5--X--X--5--X--X--5--X--X--5--X--X--5--X--5--X------|
A--3--X--X--3--X--X--3--X--X--3--X--X--3--X--3--X------|
E------------------------------------------------------|

   G
e--3--X--X--3--X--X--3--X--X--3--X--X--3--X--3--X------|
B--3--X--X--3--X--X--3--X--X--3--X--X--3--X--3--X------|
G--4--X--X--4--X--X--4--X--X--4--X--X--4--X--4--X------|
D--5--X--X--5--X--X--5--X--X--5--X--X--5--X--5--X------|
A--5--X--X--5--X--X--5--X--X--5--X--X--5--X--5--X------|
E--3--X--X--3--X--X--3--X--X--3--X--X--3--X--3--X------|

   F (you can play around with the F here, kind of an easy strum/pick)
e--1---------------------------------------|
B--1---------------------------------------|
G--2---------------------------------------|
D--3---------------------------------------|
A--3---------------------------------------|
E--1---------------------------------------|

First solo

e----------------------------------------------------|
B----------------------------------------------------|
G-------12-------12-------12-------------------------|
D-12h14----12h14----12h14------14--14-14-12----12----|
A-------------------------------------------15-------|
E----------------------------------------------------|

e----------------------------------------12-12-12-12----------|
B------------------------13-13-----------------------15-13-13-|
G-14b*14*14*14*12--12h14-------14-14-12-----------------------|
D-------------------------------------------------------------|
A-------------------------------------------------------------|
E-------------------------------------------------------------|

e-15^^^^^^^^^^^12----------------------------------|
B-----------------15-13-15-13-13/15-13-13/12-12----|
G--------------------------------------------------|
D--------------------------------------------------|
A--------------------------------------------------|
E--------------------------------------------------|

hold that bend when you pick the 13,and you pick it again (but it's bent to the 14 so 
why i have it marked like that), and on the pull off to 12 you want to release the bend at 
same time as you pull off

e-----------------------13-15-13------------|
B-13b14*14p12-----13-15----------15-13-13---|
G-------------14----------------------------|
D-------------------------------------------|
A-------------------------------------------|
E-------------------------------------------|

e-------13-15-13------------------13-15-13------------------|
B-13-15----------15-13-13---13-15----------15-13-13---------|
G-----------------------------------------------------------|
D-----------------------------------------------------------|
A-----------------------------------------------------------|
E-----------------------------------------------------------|

e------------------------15^^^17^^^19^^^^20^^^^19^^20^^-----|
B-----13^^^^^^^15^^^17^^^-----------------------------------|
G-(14)------------------------------------------------------|
D-----------------------------------------------------------|
A-----------------------------------------------------------|
E-----------------------------------------------------------|

Chorus

Jam--for the jam you play the F the same as the C and the G from the verse

Fill (2:48)


Solo (3:12)

Verse (3:48)

4:35
   G G  F
e--3-3--1-|
B--3-3--1-|
G--4-4--2-|
D--5-5--3-|
A--5-5--3-|
E--3-3--1-|


Jam
            
Submit corrections

↑ Back to top | Tablatures and chords for acoustic guitar and electric guitar, ukulele, drums are parodies/interpretations of the original songs. You may use it for private study, scholarship, research or language learning purposes only