Home » P » Perkele »

Perkele - Visitors Tabs

Artists:  A B C D E F G H I J K L M N O P Q R S T U V W X Y Z # 

Visitors Tabs

(ver. 1) Click to play this song!
Perkele
Tuning: Standard

e|-------------------------------------------------------|
B|--------------5-7-5-------------------5-------5--------|
G|--4--4--7-4-7-------7-4---4-4-7--7--7-----------7-4----|
D|----------------------------------------7--7--------7--|
A|-------------------------------------------------------|
E|-------------------------------------------------------|

e|-------------------------------------------------------|
B|--------------5-7-5-------------------7-5--5-7-5-7-5---|
G|--4--4--7-4-7-------7-4--4-4-7--7--7-------------------|
D|-------------------------------------------------------|
A|-------------------------------------------------------|
E|-------------------------------------------------------|            
Submit corrections

↑ Back to top | Tablatures and chords for acoustic guitar and electric guitar, ukulele, drums are parodies/interpretations of the original songs. You may use it for private study, scholarship, research or language learning purposes only