Home » P » Penn Jilette »

Penn Jilette - Expaining Sleight Of Hand Bass

Artists:  A B C D E F G H I J K L M N O P Q R S T U V W X Y Z # 

Expaining Sleight Of Hand Bass

(ver. 1) Click to play this song!
Penn Jilette
 Rating:
3.6/5 (22 votes)
                Walk Bass, swing 8ths

Intro:

G|------------|------------|---------3--|1------------|
D|----------3-|5-----------|---2--5-----|---3---------|
A|-------3----|---5-----2--|3-----------|------3------|
E|-1--4-------|------3-----|------------|---------4-3-|

G|------------|------------|---6--5----(6)/10~--------|
D|----------3-|5-----------|---------6--|-------------|
A|-------3----|---5-----2--|3-----------|-------------|
E|-1--4-------|------3-----|------------|-------------|

Second part, (when Teller comes on stage)

G|------------|------------|---------3--|1------------|
D|----------3-|5-----------|---2--5-----|---3---------|
A|-------3----|---5-----2--|3-----------|------3------|
E|-1--4-------|------3-----|------------|---------4-3-|

G|------------|------------|---------5--|-------------|
D|----------3-|5-----------|---2--5-----|3------------|
A|-------3----|---5-----2--|3-----------|---4--3------|
E|-1--4-------|------3-----|------------|---------4-3-|

G|------------|------------|---------3--|1------------|
D|----------3-|5-----------|---2--5-----|---3---------|
A|-------3----|---5-----2--|3-----------|------3------|
E|-1--4-------|------3-----|------------|---------4-3-|

G|------------|------------|---------3--|1------------|-------------|
D|----------3-|5-----------|---2--5-----|---3---------|-------------|
A|-------3----|---5-----2--|3-----------|------3------|-------------|
E|-1--4-------|------3-----|------------|---------4-3-|1------------|

"The 7 principles of magic"

G|-------5----|4-----------|------------|-------------|  play 5X
D|-6-----6----|5-----5-----|5-----5-----|6------------|  with fills
A|-8----------|------5-----|3-----7-----|8------------|
E|------------|------------|------------|-------------|  end with low F (E|--1-)


"From the other SIDE!"

G|------------|------------|---------3--|1------------|
D|----------3-|5-----------|---2--5-----|---3---------|
A|-------3----|---5-----2--|3-----------|------3------|
E|-1--4-------|------3-----|------------|---------4-3-|

G|------------|------------|---------5--|-------------|
D|----------3-|5-----------|---2--5-----|3------------|
A|-------3----|---5-----2--|3-----------|---4--3------|
E|-1--4-------|------3-----|------------|---------4-3-|            
Submit corrections

↑ Back to top | Tablatures and chords for acoustic guitar and electric guitar, ukulele, drums are parodies/interpretations of the original songs. You may use it for private study, scholarship, research or language learning purposes only