Home » P » Pedro The Lion »

Pedro The Lion - Options Tabs

Artists:  A B C D E F G H I J K L M N O P Q R S T U V W X Y Z # 

Options Tabs

(ver. 1) Click to play this song!
Pedro The Lion
This is my second tab im doing for you guys of pedro the lion.  This is another great 
that I was sad to find no correct tabs for.  It's realy not that hard to figure out, as 
mostly single note stuff, but I might as well feed it to you.

Standard tuning; No capo


Intro:

e-----------------------------------------------------|
b-----------------------------------------------------|
g-----------------------------------------------------|
d-------0-------0---------0----------0--------0-----0-|
a-----9-------7--------12---------10---10-9-------7---|
e---7-----7-5-----5-10------10-0------------7---5-----|

e--------------------------|
b--------------------------|
g--------------------------|   repeat from begginning once more
d--------------------------|        THEN finish with....
a-------10-10---10---10----|
e---5-8-------8----8----8--|

e---------------------|
b---------------------|
g---------------------|
d------0-------0------|
a----7-------7--------|
e--9-----7-5-----7-5--|


Verse 1:

e---------------------------------------------------|
b---------------------------------------------------|
g---------------------------------------------------|
d-------4--------4--------------9--------9----------|
a----5-----5--------5--------10----10-------10------|
e-5-----------5--------5-/10----------10-------10---|


Bridge

E |------------------------------------------------|
B |------------------------------------------------|
G |------------------------------------------------|
D |-4--4--4--4--4--4--x--4--4--2--2--2--2--0--0--0-|
A |-4--2--2--2--0--0--0--x--x--x--x--x--x--x--x--x-|
E |-x--x--x--x--x--x--x--3--3--3--3--3--3--3--3--3-|


The chorus is just repeating a D and then G chord.  and then the song repeats the parts 
            
Submit corrections

↑ Back to top | Tablatures and chords for acoustic guitar and electric guitar, ukulele, drums are parodies/interpretations of the original songs. You may use it for private study, scholarship, research or language learning purposes only