» » »

Pearl Jam - Rats Bass

Artists:  A B C D E F G H I J K L M N O P Q R S T U V W X Y Z # 

Rats Bass

(ver. 3) Click to play this song!
Pearl Jam
 Rating:
4/5 (4 votes)
                "#------------------------------------------------------------------------------##

Rats by Pearl Jam

i havent seen this published yet.  It's a real easy and fun riff
here it is

g-------------------------------------------------------- -|
d------------------5-5-5--------------------------------|
a----7------5-7-----------7-5--------------------------|
e-------0-------------------------7-5-------------------|

do this several times then do this
g-----------------------------------------7---------------|
d-----------------------5------------9-------------------|
a----7---------5--7--------------------------------------|
e--------0------------------------------------------------|

thats it its a very easy rif
real name scott broschart
"            
Submit corrections

↑ Back to top | Tablatures and chords for acoustic guitar and electric guitar, ukulele, drums are parodies/interpretations of the original songs. You may use it for private study, scholarship, research or language learning purposes only