» » »

Pearl Jam - Insignificance Tabs

Artists:  A B C D E F G H I J K L M N O P Q R S T U V W X Y Z # 

Insignificance Tabs

(ver. 2) Click to play this song!
Pearl Jam
 Rating:
4/5 (4 votes)

 Insignificance lessons Tabs too difficult? Try these video lessons and learn fast
 
                Intro
|----------------------------------------------------------------------|
|----------------------------------------------------------------------|
|-9-----------9--9-----------9--9--------------------------------------|
|-7-----------7--7-----------7--7-----------7----------------7--7------|
|-0-----------0--9-----------9--7-----------7--7-------------7--0------|
|----------------------------------------------8-------------8---------|
Verse
|------------------------------------------------------------|
|------------------------------------------------------------|
|-----6---6------0------0----0------6---6------0------0----0-|
|--------------0------0----------------------0------0--------|
|------------5------6------7---------------5------6------7---|
|-5-----------------------------5----------------------------|
Pre chorus
|--------------------------------------------------------------|
|--------------------------------------------------------------|
|------------------------------9-9-9-9-9-9-9-9-9-9-9-9-9-9-9-9-|
|-------9-9-------9-9-------9--9-9-9-9-9-9-9-9-9-9-9-9-9-9-9-9-|
|-10-10-----10-10-----10-10----7-7-7-7-7-7-7-7-7-7-7-7-7-7-7-7-|
|--8--8------8--8------8--8------------------------------------|
Later Play This 
|---------------------------------------------------|
|---------------------------------------------------|
|---10-10-10-10-10-10-10-10-10-10-10-10-10-10-10-10-|
|---10-10-10-10-10-10-10-10-10-10-10-10-10-10-10-10-|
|----8--8--8--8--8--8--8--8--8--8--8--8--8--8--8--8-|
|---------------------------------------------------|

Chorus
|------------------------------------------------------------------------|
|------------------------------------------------------------------------|
|------------------------------------------------------------------------|
|-7-7-7-7-7-7-7-7--7-7-7-7-7-7-7-7--7-7-7-7-7-7-7-7----------------------|
|-0-0-0-0-0-0-0-0--9-9-9-9-9-9-9-9--7-7-7-7-7-7-7-7--7-7-7-7-7-7-7-7-----|
|----------------------------------------------------8-8-8-8-8-8-8-8-----|

Bridge
|--------------------0--0--0--0--0---0------0----------0--0--0--0--0-----|
|-------------------12-12-12-12-12--12/13--13---------13-13-13-12-10-----|
|-9----------------------------------------------------------------------|
|-7----------------------------------------------------------------------|
|-0----------------------------------------------------------------------|
|------------------------------------------------------------------------|

|-------------------------------------------------------------------------|
|-17-0-0-15-0-0-12-0--0-10-0-0-12-0-15-0--12-0-0-15-0-0-12-0--------------|
|-------------------------------------------------------------------------|
|-------------------------------------------------------------------------|
|-------------------------------------------------------------------------|
|-------------------------------------------------------------------------|
                                                                          
The Bridge Isn't complete but these are the the most playd parts so have fun with it
and just improvise
            
Submit corrections


        Insignificance lessons Hard to play? Try these video lessons and learn fast Insignificance lessons
        
↑ Back to top | Tablatures and chords for acoustic guitar and electric guitar, ukulele, drums are parodies/interpretations of the original songs. You may use it for private study, scholarship, research or language learning purposes only