» » »

Pearl Jam - Gone Tabs

Artists:  A B C D E F G H I J K L M N O P Q R S T U V W X Y Z # 

Gone Tabs

(ver. 1) Click to play this song!
Pearl Jam
 Rating:
4/5 (4 votes)


 Gone lessons Tabs too difficult? Try these video lessons and learn fast
 
                Pearl Jam
Pearl Jam
All guitars: standard tuning: eadgbe
Guitar 1:g1: Stone Gossard- Acoustic
Guitar 2:g2: Mike Mcready- clean electric
Guitar 3:g3: Mike Mcready- distorted/overdriven electric

I've figured a couple songs out in the past but I've been to lazy to actually post a 
 I finally decided I'd tab this one cuz its a new album and all. This is most of the song. 
rate.

Intro

g1
e|--------------------|-----------------|
b|----(0)(0)----------|-----------------|
g|-----4--4-----------|-----------------|
d|--2------------2--0-|--------4--2--0--|
a|--3------------3--0-|--2-----2--2-----|
e|--------------------|--0--------------|
The second guitar enters after the first time

g2 Let ring
e|--------------------|-----------------|
b|--------------------|-----------------|
g|--------4-----------|-----------------|
d|-----2--------------|------2-4--2--0--|
a|--3-----------------|----2------------|
e|--------------------|--0--------------|
Play both g1 and g2 two more times then play this on the fourth time

g1
e|--------------------|-----------------|
b|--------------------|-----------------|
g|--------------------|-----------------|
d|--2-----------------|-(2)-------------|
a|--3-----------------|--2--------------|
e|--------------------|--0--------------|

g2 Let ring
e|--------------------|--------0--------|
b|--------------------|-----------------|
g|--------4-----------|-----------------|
d|------2-------------|----2-4----------|
a|----3---------------|--2--------------|
e|--0-----------------|-----------------|

g3                        let ring out
e|--------------------|-----------------|
b|--------------------|-----(feedback)--|
g|--------------------|--------9--------|
d|--------------------|-----------------|
a|--------------------|-----------------|
e|--------------------|-----------------|

Pause then head into the verse

Verse

g1
e|--------------------|-----------------|
b|----(0)(0)----------|-----------------|
g|-----4--4-----------|-----------------|
d|--2------------2--0-|--------4--2--0--|
a|--3------------3--0-|--2-----2--2-----|
e|--------------------|--0--------------|

g2 Let ring
e|--------------------|-----------------|
b|--------------------|-----------------|
g|--------4-----------|-----------------|
d|-----2--------------|------2-4--2--0--|
a|--3-----------------|----2------------|
e|--------------------|--0--------------|
play that riff 3 times then play this small variation:

g1
e|--------------------|-----------------|
b|--------------------|-----------------|
g|--------------------|-----------------|
d|--2-----------------|-(2)-------------|
a|--3-----------------|--2--------------|
e|--------------------|--0--------------|

g2 Let ring
e|--------------------|--------0--------|
b|--------------------|-----------------|
g|--------4-----------|-----------------|
d|------2-------------|----2-4----------|
a|----3---------------|--2--------------|
e|--0-----------------|-----------------|

then back to the main part

g1
e|--------------------|-----------------|
b|----(0)(0)----------|-----------------|
g|-----4--4-----------|-----------------|
d|--2------------2--0-|--------4--2--0--|
a|--3------------3--0-|--2-----2--2-----|
e|--------------------|--0--------------|

g2 Let ring
e|--------------------|-----------------|
b|--------------------|-----------------|
g|--------4-----------|-----------------|
d|-----2--------------|------2-4--2--0--|
a|--3-----------------|----2------------|
e|--------------------|--0--------------|
play this once then a third guitar is added in the back ground

g3 with slide or ebow
e|--------------------|-----------------|
b|(fade in)-----------|-----------------|
g|--------------------|-----------------|
d|--12s////////5------|-----------------|
a|--------------------|-----------------|
e|--------------------|-----------------|
Play all three guitar parts 2 times then once without the third guitar then

g1
e|--------------------|-----------------|
b|--------------------|-----------------|
g|--------------------|-----------------|
d|--2-----------------|-(2)-------------|
a|--3-----------------|--2--------------|
e|--------------------|--0--------------|

g2 Let ring
e|--------------------|--------0--------|
b|--------------------|-----------------|
g|--------4-----------|-----------------|
d|------2-------------|----2-4----------|
a|----3---------------|--2--------------|
e|--0-----------------|-----------------|

g3 with slide or ebow
e|--------------------|-----------------|
b|(fade in)-----------|-----------------|
g|---hold-------------|-----------------|
d|--5-----------------|------/7---------|
a|--------------------|-----------------|
e|--------------------|-----------------|


Pre-Chorus

g1&2 let ring
e|--0-----------------|-----------------|
b|--x-----------------|--0--------------|
g|--4-----------------|--4--------------|
d|--2-----------------|--4--------------|
a|--3---------------0-|--2--------------|
e|--------------------|-----------------|
play this 3 times then

g1&2
e|--------------------|
b|--------------------|
g|--------------------|
d|--10-------9--------|
a|--10-------10-------|
e|--8--------8--------|

g3
e|--------------------|
b|--3----3----3----3--|
g|--5----5----5----5--|
d|--------------------|
a|--------------------|
e|--------------------|
Play this 3 times then go into the chorus

Chorus-

g1&2 strum(the electric is a little overdriven)
e|--------------------|
b|--------------------|
g|---7-------6--------|
d|---7-------7--------|
a|---5-------5--------|
e|--------------------|

g3
e|--------------------|
b|----------------(10)| Play the 10 in parentesis the third time and let it
g|---7-------6--------| ring out for the nect measure below
d|--------------------|
a|--------------------|
e|--------------------|
play all 3 guitars 3 times then play this once

g1&2 strum(the electric is a little overdriven)
e|--------------------|
b|--------------------|
g|--------------------|
d|--10-------12-------|
a|--10-------12-------|
e|--8--------10-------|
Play all of that twice then play this

Post-Chorus

g1&2
e|--------------------|
b|--------------------|
g|---7-------6--------|
d|---7-------7--------|
a|---5-------5--------|
e|--------------------|
play this rythym three times

g3 first time
e|--------------------|
b|--------------------|
g|---7b--r---6--------|
d|--------------7-----|
a|--------------------|
e|--------------------|

g3 second time
e|--------------------|
b|--------------------|
g|---7b--r---6--------|
d|--------------------|
a|--------------------|
e|--------------------|

g3 third time
e|--------------------|
b|------------------10|
g|---7b--r---6--------|
d|--------------7-----|
a|--------------------|
e|--------------------|

Then play

g1&2 strum(the electric is a little overdriven)
e|--------------------|
b|--------------------|
g|--------------------|
d|--10-------12-------|
a|--10-------12-------|
e|--8--------10-------|

same thing for next verse and chorus. then improvise after the 2nd chorus

There it is...rate it.
            
Submit corrections



        Gone lessons Hard to play? Try these video lessons and learn fast Gone lessons
        
↑ Back to top | Tablatures and chords for acoustic guitar and electric guitar, ukulele, drums are parodies/interpretations of the original songs. You may use it for private study, scholarship, research or language learning purposes only