Home » P » Pearl Jam »

Pearl Jam - Evacuation Tabs

Artists:  A B C D E F G H I J K L M N O P Q R S T U V W X Y Z # 

Evacuation Tabs

(ver. 2) Click to play this song!
Pearl Jam

e|-|-----------------------------------------------------------|----------------|
B|-|-----------------------------------------------------------|----------------|
G|-|-----------------------------------------------------------|----------------|
D|-|-7-7---9-9---7-7---9-9---7-7---9-9---7-7---9-9----5-5--7-7-|----------------|
A|-|-6-6---9-9---6-6---9-9---6-6---9-9---6-6---9-9----5-5--7-7-|----------------|
E|-|-7-7---7-7---7-7---7-7---7-7---7-7---7-7---7-7----3-3--5-5-|----------------|
G1

e|-|-----------------------------------------------------------|----------------|
B|-|-----------------------------------------------------------|----------------|
G|-|-7-7---------------------7-7-------------------------------|----------------|
D|-|-7-7---------7---7-------7-7--------7---7------------------|----------------|
A|-|-5-5-------9---9----9----5-5------9---9----9--9p7----------|----------------|
E|-|--------------------------------------------------7----9---|----------------|
G2

e|-|-------------------------------------------------|--------------------------|
B|-|-------------------------------------------------|--------------------------|
G|-|-------------------------------------------------|--------------------------|
D|-|---------------------------------------8--7-7--7-|--------------------------|
A|-|--5---5---5-5-5-6--6-6--6-6-6-7--7-7---6--7-7--7-|--------------------------|
E|-|--7---7---7-7-7-7--7-7--7-7-7-7--7-7------5-5--5-|--------------------------|
G1  The sirens scream wanton attention

e|-|-------------------------------------------------|--------------------------|
B|-|-------------------------------------------------|--------------------------|
G|-|-------------------------------------------------|--------------------------|
D|-|-------------------------------------------------|--------------------------|
A|-|-------------------------------------------------|--------------------------|
E|-|--7----------------------------------------------|--------------------------|
G2

e|-|---------------------------------------------------|------------------------|
B|-|---------------------------------------------------|------------------------|
G|-|---------------------------------------------------|------------------------|
D|-|-----------------------------------------8--7-7--7-|------------------------|
A|-|--5---5---5-5-5-6--6-6---6-6-6-7--7--7---6--7-7--7-|------------------------|
E|-|--7---7---7-7-7-7--7-7---7-7-7-7--7--7------5-5--5-|------------------------|
G1  Time to take heed and change direction

e|-|---------------------------------------------------|------------------------|
B|-|---------------------------------------------------|------------------------|
G|-|---------------------------------------------------|------------------------|
D|-|-----------------------------------------8--7-7--7-|------------------------|
A|-|--5---5---5-5-5-6--6-6---6-6-6-7--7--7---6--7-7--7-|------------------------|
E|-|--7---7---7-7-7-7--7-7---7-7-7-7--7--7------5-5--5-|------------------------|
G1  Time to take stock and make ommissions

e|-|----------------------------------------------------------|-----------------|
B|-|----------------------------------------------------------|-----------------|
G|-|----------------------------------------------------------|-----------------|
D|-|-7-7---9-9---7-7---9-9---7-7---9-9---7-7---9-9---5-5--7-7-|-----------------|
A|-|-6-6---9-9---6-6---9-9---6-6---9-9---6-6---9-9---5-5--7-7-|-----------------|
E|-|-7-7---7-7---7-7---7-7---7-7---7-7---7-7---7-7---3-3--5-5-|-----------------|
G1         Evacuation           Evacuation

e|-|----------------------------------------------------------|-----------------|
B|-|----------------------------------------------------------|-----------------|
G|-|-7\----------------------7-7------------------------------|-----------------|
D|-|-7\----------------------7-7------------------------------|-----------------|
A|-|-5\----------------------5-5------------------------------|-----------------|
E|-|-------------------------------------------------3----5---|-----------------|
G2

e|-|--------------------------------------------------|-------------------------|
B|-|--------------------------------------------------|-------------------------|
G|-|--------------------------------------------------|-------------------------|
D|-|----------------------------------------8--7-7--7-|-------------------------|
A|-|--5---5---5-5-5-6--6-6---6-6-6-7--7-7---6--7-7--7-|-------------------------|
E|-|--7---7---7-7-7-7--7-7---7-7-7-7--7-7------5-5--5-|-------------------------|
G1  Time to take leave all formal functions

e|-|--------------------------------------------------|-------------------------|
B|-|--------------------------------------------------|-------------------------|
G|-|--------------------------------------------------|-------------------------|
D|-|--------------------------------------------------|-------------------------|
A|-|--------------------------------------------------|-------------------------|
E|-|--7-----------------------------------------------|-------------------------|
G2 w/wah

e|-|-------------------------------------------------|--------------------------|
B|-|-------------------------------------------------|--------------------------|
G|-|-------------------------------------------------|--------------------------|
D|-|---------------------------------------8--7-7--7-|--------------------------|
A|-|--5---5---5-5-5-6--6-6--6-6-6-7--7-7---6--7-7--7-|--------------------------|
E|-|--7---7---7-7-7-7--7-7--7-7-7-7--7-7------5-5--5-|--------------------------|
G1  Time to plant seeds of reconstruction

e|-|-------------------------------------------------|--------------------------|
B|-|-------------------------------------------------|--------------------------|
G|-|-------------------------------------------------|--------------------------|
D|-|---------------------------------------8--7-7----|--------------------------|
A|-|--5---5---5-5-5-6--6-6--6-6-6-7--7-7---6--7-7----|--------------------------|
E|-|--7---7---7-7-7-7--7-7--7-7-7-7--7-7------5-5----|--------------------------|
G1  No time this time to feign reluctance

e|-|-------------------------------------------------------------------------|--|
B|-|-------------------------------------------------------------------------|--|
G|-|-------------------------------------------------------------------------|--|
D|-|---------9-9----------------------------------9-9------------------------|--|
A|-|---5-/8--7-7--7-7-7-7-7-7-7-7-7-7-7----5--/8--7-7--7-7-7-7-7-7-7-7-7-7-7-|--|
E|-|-7------------0-0-0-0-0-0-0-0-0-0-0-7--------------0-0-0-0-0-0-0-0-0-0-0-|--|
G1           It's like you're waiting for a diamond shore to wash your way

e|-|---------------------------------------------------------------------------|
B|-|---------------------------------------------------------------------------|
G|-|---------------------------------------------------------------------------|
D|-|----------9-9---8---7-7------------------------9-9-------------------------|
A|-|----5-/8--7-7---6---5-5-----------------5--/8--7-7--7-7-7-7-7-7-7-7-7-7-7--|
E|-|-7-----------------------------------7--------------0-0-0-0-0-0-0-0-0-0-0--|
G1 Bets put aside you're evil         let's crawl into your face

e|-|---------------------------------------------------------------------------|
B|-|---------------------------------------------------------------------------|
G|-|---------------------------------------------------------------------------|
D|-|----------9-9----------------------------------9-9---8---7-7---------------|
A|-|---5--/8--7-7--7-7-7-7-7-7-7-7-7-7-7----5--/8--7-7---6---5-5---------------|
E|-|-7-------------0-0-0-0-0-0-0-0-0-0-0--7------------------------------------|
G1 A vision vague or not raising a frightful wake-you-up          time for

e|-|-------------------------------------------------|--------------------------|
B|-|-------------------------------------------------|--------------------------|
G|-|-------------------------------------------------|--------------------------|
D|-|-7-7---9-9---7-7---9-9---7-7---9-9---7-7---9-9---|--------------------------|
A|-|-6-6---9-9---6-6---9-9---6-6---9-9---6-6---9-9---|--------------------------|
E|-|-7-7---7-7---7-7---7-7---7-7---7-7---7-7---7-7---|--------------------------|
G1         Evacuation           Evacuation

e|-|-------------------------------------------------|--------------------------|
B|-|-------------------------------------------------|--------------------------|
G|-|-7-7---------------------7-----------------------|--------------------------|
D|-|-7-7---------------------7-----------------------|--------------------------|
A|-|-5-5---------------------5-----------------------|--------------------------|
E|-|-------------------------------------------------|--------------------------|
G1

e|-|----------------------------------------------------------|-----------------|
B|-|----------------------------------------------------------|-----------------|
G|-|----------------------------------------------------------|-----------------|
D|-|-7-7---9-9---7-7---9-9---7-7---9-9---7-7---9-9---5-5--7-7-|-----------------|
A|-|-6-6---9-9---6-6---9-9---6-6---9-9---6-6---9-9---5-5--7-7-|-----------------|
E|-|-7-7---7-7---7-7---7-7---7-7---7-7---7-7---7-7---3-3--5-5-|-----------------|
G1         Evacuation           Evacuation

e|-|----------------------------------------------------------|-----------------|
B|-|----------------------------------------------------------|-----------------|
G|-|-7-----------------------7--------------------------------|-----------------|
D|-|-7-----------------------7-----------------------5-5--7-7-|-----------------|
A|-|-5-----------------------5-----------------------5-5--7-7-|-----------------|
E|-|-------------------------------------------------3-3--5-5-|-----------------|
G2

e|-|-------------------------------------------------------------------------|--|
B|-|-----------2--3-3----------------2--3-3----------------------------------|--|
G|-|-----------2--2-2----------------2--2-2----------------------------------|--|
D|-|-4-4-4-2---0--0-0------4-4-4-2---0--0-0------4-4-4-2---------------------|--|
A|-|-2-0-2-2---------------2-0-2-2---------------2-0-2-2---2-2-2-2-2-2-2-2---|--|
E|-|-------0---------------------0---------------------0---0-0-0-0-0-0-0-0---|--|
G1+G2     Evacuation            Evacuation

e|-|-----------------------------------------------2-2--2--|--------------------|
B|-|-8-7-5----5----5--5----5--5----5---1---3----3--3-3--3--|--------------------|
G|-|-5-5-5----5----5--5----5--5----5---3---3----3--2-2--2--|--------------------|
D|-|-----------------------------------------------0-0--0--|--------------------|
A|-|-------------------------------------------------------|--------------------|
E|-|-------------------------------------------------------|--------------------|
G1    There was a solemn man who watched his twilight disappear

e|-|-----------------------------------------------2-------|--------------------|
B|-|-8-7-5-----------------------------1---3----3--3-------|--------------------|
G|-|-5-5-5-----------------------------3---3----3--2-------|--------------------|
D|-|-----------------------------------------------0-------|--------------------|
A|-|-------------------------------------------------------|--------------------|
E|-|-------------------------------------------------------|--------------------|
G2

e|-|-----------------------------------2-2--2--|--------------------------------|
B|-|-8-7-5---5---5---5-5--5--1--3---3--3-3--3--|--------------------------------|
G|-|-5-5-5---5---5---5-5--5--3--3---3--2-2--2--|--------------------------------|
D|-|-----------------------------------0-0--0--|--------------------------------|
A|-|-------------------------------------------|--------------------------------|
E|-|-------------------------------------------|--------------------------------|
G1      Altered by a falling eagle a warning sign

e|-|-----------------------------------2----2--|--------------------------------|
B|-|-8-7-5-------------------1--3---3--3----3--|--------------------------------|
G|-|-5-5-5-------------------3--3---3--2----2--|--------------------------------|
D|-|-----------------------------------0----0--|--------------------------------|
A|-|-------------------------------------------|--------------------------------|
E|-|-------------------------------------------|--------------------------------|
G2

e|-|----------------------------------------------------------------|-----------|
B|-|-8-7-5----5----5----5--5----5---1---3----3---3------------------|-----------|
G|-|-5-5-5----5----5----5--5----5---3---3----3---3------------------|-----------|
D|-|-------------------------------------------------3-3-3-3-3-3----|-----------|
A|-|-------------------------------------------------3-3-3-3-3-3----|-----------|
E|-|-------------------------------------------------1-1-1-1-1-1----|-----------|
G1    He sensed worry could be strength with a plan said time for

e|-|----------------------------------------------------------------|-----------|
B|-|-8-7-5--------------------------1---3--------3------------------|-----------|
G|-|-5-5-5--------------------------3---3--------3------------------|-----------|
D|-|-------------------------------------------------3-3-3-3-3-3----|-----------|
A|-|-------------------------------------------------3-3-3-3-3-3----|-----------|
E|-|-------------------------------------------------1-1-1-1-1-1----|-----------|
G2

e|-|---------------------------------------------------------------------------|
B|-|---------------------------------------------------------------------------|
G|-|---------------------------------------------------------------------------|
D|-|-7-7---9-9---7-7---9-9---7-7---9-9---7-7---9-9---7-7---9-9---7-7---9-9-----|
A|-|-6-6---9-9---6-6---9-9---6-6---9-9---6-6---9-9---6-6---9-9---6-6---9-9-----|
E|-|-7-7---7-7---7-7---7-7---7-7---7-7---7-7---7-7---7-7---7-7---7-7---7-7-----|
G1         Evacuation           Evacuation                 Evacuation

e|-|---------------------------------------------------------------------------|
B|-|---------------------------------------------------------------------------|
G|-|-7-----------------------7-----------------------7-------------------------|
D|-|-7-----------------------7-----------------------7-------------------------|
A|-|-5-----------------------5-----------------------5-------------------------|
E|-|---------------------------------------------------------------------------|
G2

e|-|---------------------------------------------------------------------------|
B|-|---------------------------------------------------------------------------|
G|-|---------------------------------------------------------------11\9--------|
D|-|--------------------------------------------------------------------12-12--|
A|-|---------------------------------------------------------------------------|
E|-|---------------------------------------------------------------------------|
G3

e|-|-------------------------------------------------------|--------------------|
B|-|-------------------------------------------------------|--------------------|
G|-|-------------------------------------------------------|--------------------|
D|-|---7---7------9---9------7-----7--------9-----9--------|--------------------|
A|-|---6---6------9---9------6-----6--------9-----9--------|--------------------|
E|-|---7---7------7---7------7-----7--------7-----7--------|--------------------|
G1             Evacuation

e|-|-------------------------------------------------------|--------------------|
B|-|-------------------------------------------------------|--------------------|
G|-|-7-----------------------------------------------------|--------------------|
D|-|-7-----------------------------------------------------|--------------------|
A|-|-5-----------------------------------------------------|--------------------|
E|-|-------------------------------------------------------|--------------------|
G2

e|-|-12b14-12b14-12b14-12b14-12b14r12-10h12p10----10*tr12--|--------------------|
B|-|-------------------------------------------12----------|--------------------|
G|-|-------------------------------------------------------|--------------------|
D|-|-------------------------------------------------------|--------------------|
A|-|-------------------------------------------------------|--------------------|
E|-|-------------------------------------------------------|--------------------|
G3   (with wah)                                *trill

e|-|-------------------------------------------------------------------|--------|
B|-|-----------2--3-3----------------2--3-3----------------2--3-3------|--------|
G|-|-----------2--2-2----------------2--2-2----------------2--2-2------|--------|
D|-|-4-4-4-2---0--0-0------4-4-4-2---0--0-0------4-4-4-2---0--0-0------|--------|
A|-|-2-0-2-2---------------2-0-2-2---------------2-0-2-2---------------|--------|
E|-|-------0---------------------0---------------------0---------------|--------|
G1+G2     Evacuation            Evacuation            Evacuation

e|-|-10*tr12-----------------------------------------------------------|--------|
B|-|-------------------------------------------------------------------|--------|
G|-|-------------------------------------------------------------------|--------|
D|-|-------------------------------------------------------------------|--------|
A|-|-------------------------------------------------------------------|--------|
E|-|-------------------------------------------------------------------|--------|
G3  *trill

e|-|-------------------------------------------------------------------|--------|
B|-|-----------2--3-3----------------2--3-3----------------2--3-3------|--------|
G|-|-----------2--2-2----------------2--2-2----------------2--2-2------|--------|
D|-|-4-4-4-2---0--0-0------4-4-4-2---0--0-0------4-4-4-2---0--0-0------|--------|
A|-|-2-0-2-2---------------2-0-2-2---------------2-0-2-2---------------|--------|
E|-|-------0---------------------0---------------------0---------------|--------|
G1+G2     Evacuation            Evacuation            Evacuation

e|-|------------------14-12b14-10h12p10----12p10-----------------------|--------|
B|-|------------------------------------12-------12--------------------|--------|
G|-|-------------------------------------------------------------------|--------|
D|-|-------------------------------------------------------------------|--------|
A|-|-------------------------------------------------------------------|--------|
E|-|-------------------------------------------------------------------|--------|
G3                                                   w/ wah effects...

e|-|---------------------||------------------------------------------------------|
B|-|-----------2--3-3----||------------------------------------------------------|
G|-|-----------2--2-2----||------------------------------------------------------|
D|-|-4-4-4-2---0--0-0----||------------------------------------------------------|
A|-|-2-0-2-2-------------||------------------------------------------------------|
E|-|-------0-------------||------------------------------------------------------|
            
Submit corrections

↑ Back to top | Tablatures and chords for acoustic guitar and electric guitar, ukulele, drums are parodies/interpretations of the original songs. You may use it for private study, scholarship, research or language learning purposes only