» » »

Pearl Jam - Down Tabs

Artists:  A B C D E F G H I J K L M N O P Q R S T U V W X Y Z # 

Down Tabs

(ver. 2) Click to play this song!
Pearl Jam
 Rating:
4.4/5 (17 votes)

 Down lessons Tabs too difficult? Try these video lessons and learn fast
 
                ------------------------------------------------------------------------------
-1-1-1-1-1-1-1-1-1-1-1-1-1-1-1-1----1-1-1-1-1-1-1-1-1-1-1-1-1-1-1-1-----------
-2-2-2-2-2-2-2-2-2-2-2-2-2-2-2-2----2-2-2-2-2-2-2-2-2-2-2-2-2-2-2-2-----------
-2-2-2-2-2-2-2-2-2-2-2-2-2-2-2-2----2-2-2-2-2-2-2-2-2-2-2-2-2-2-2-2-----------
-0-0-0-0-0-0-0-0-0-0-0-0-0-0-0-0----0-0-0-0-0-0-0-0-0-0-0-0-0-0-0-0-----------
------------------------------------------------------------------------------
                                                                              

Guitar 1:
-3---3-3-3--3--3-3-3--3-3-2---------------------------------------------------
-3---3-3-0--3--3-3-0--3-3-3---------------------------------------------------
-0---0-0-0--0--0-0-0--0-0-2---------------------------------------------------
-0---2-2-0--0--2-2-0--0-2-0---------------------------------------------------
-2---3-3-2--2--3-3-2--2-3-----------------------------------------------------
-3----------3---------3-------------------------------------------------------
                                                                              
Guitar 2: (play same chords as guitar one)
------------------------------------------------------------------------------
------------------------------------------------------------------------------
---------------------------2h4p2p0---0-0--------------------------------------
-----------------------------------4------------------------------------------
------------------------------------------------------------------------------
------------------------------------------------------------------------------
                                                                              

Guitar 1:
----------------------2---------------------------2---------------------------
--1-------------------3---------1-----------------3---------------------------
--0-------------------2---------0-----------------2---------------------------
--2-------------------0---------2-----------------0---------------------------
--3-----------------------------3---------------------------------------------
------------------------------------------------------------------------------
                                                                              
Guitar 2: (also, play chords as guitar 1)
-----3--2--0----0--2--2-------------------------------------------------------
-------------3--------3---------1---------------------------------------------
--------------------------------0---------------------------------------------
--------------------------------2-----------------0---------------------------
--------------------------------3---3--2-0--3-2-0-----------------------------
------------------------------------------------------------------------------
                                                                              
Guitar 1:
--0--0----2---3---0---0--0----------------------------------------------------
--0--0----3---3---1---1--1----------------------------------------------------
--0--0----4---5---2---2--2----------------------------------------------------
--2--2----4---5---2---2--2------------0-0-------------------------------------
--2--2----2---3---0---0--0-----0h2-0--2-2-------------------------------------
--0--0--------------------------------3-3-------------------------------------
                                                                              
Guitar 2:
------------------------------------------------------------------------------
------------------------------------------------------------------------------
--9--9----4---5---------------------------------------------------------------
--9--9----4---5---7---7--7-----7/9-7--5-5-------------------------------------
--7--7----2---3---------------------------------------------------------------
--0--0------------5---5--5-----5/7-5--3-3-------------------------------------
                                          into solo 1                         

solo 1:
--------3--3---3-3---------------------------------------------7-7---7\5--5---
--3-3h5----3h5---3h5--3h5-p3--------------------------------------------------
-----------------------------4\2--0-2-2/4p0---0-2-2/4-2-2p0-/7-----7-7\5--5---
--------------------------------------------2---------------------------------
------------------------------------------------------------------------------
------------------------------------------------------------------------------
                                                                              

----3h5p3-0-3-5-3h5p3---3-----------------------------------------------------
----------------------5---5-3-------------------------------------------------
--5---------------------------5-4-5-4b-2--------------------------------------
------------------------------------------------------------------------------
------------------------------------------------------------------------------
------------------------------------------------------------------------------
                                                                              
Guitar 1:
-----0---2-0------0-----------------------------------------------------------
-----0---3-1----3-1-----------------------------------------------------------
-----0---2-2----0-0-----------------------------------------------------------
-----2---0-2----0-2-----------------------------------------------------------
-2---2-----0----2-3-----------------------------------------------------------
-0----------------------------------------------------------------------------
                                                                              

solo 2:
---------------3-----------------------------------7--7-7-7-5-3------5--------
---------------0-------------------------------------------------3h5---3h5p3--
--2h4p2p0---0--0--------------2-4-2h4p2p0---0--/7--7--7-7-7-5-4---------------
----------4----0--------------------------4-----------------------------------
---------------2--------------------------------------------------------------
---------------3--------------------------------------------------------------
                verse chords                                                  

-----------------------------------------12h15p12-12h15p12-12h15p12-----------
---3----------------------------------------------------------------15p12h15--
-4---4-0-----2b-2b-2bp0---0--/7-9--12-12--------------------------------------
---------0h2------------2-----------------------------------------------------
------------------------------------------------------------------------------
------------------------------------------------------------------------------
                                                                              

--------------------------------------------------------------15-------15-----
-12h15p12-------------------------15b-15--15-12---------15h17----15h17--------
----------14-12-14-12h14p12----12---------------14b-12v-----------------------
----------------------------14------------------------------------------------
------------------------------------------------------------------------------
------------------------------------------------------------------------------
                                                                              

-------15-------15-------15-------15-------15---------------------------------
-15h17----15h17----15h17----15h17----15h17----15h17p15-12-15-12-0----8--------
----------------------------------------------------------------0------7-5----
-------------------------------------------------------------------5----------
------------------------------------------------------------------------------
------------------------------------------------------------------------------
                                                                              

----------------------------------------------------3-----3-5b-5b-3-2-3-3-3---
-10b-8-7-8-7\-5\--------------------------------3h5---3h5---------------5-5---
------------------0-2b-2-2-4--4b--2h4p2p0---0-2-------------------------------
------------------------------------------4-----------------------------------
------------------------------------------------------------------------------
------------------------------------------------------------------------------
                                                                              

-3--3----------------------------------------------------3---3---3------------
-5--3--3v-3vv-3---3---3---3-0----------------------------3---3h5-3--3/5p0-----
----------------4---4---4-----4-4-2-0---0-2-2-0---0-2vv--0--------------------
--------------------------------------2---------2-----------------------------
------------------------------------------------------------------------------
------------------------------------------------------------------------------
                                                                              

------------------------------------------------------------------------------
------------------------------------------------------------------------------
-0h2p0------------------------------------------------------------------------
------------------------------------------------------------------------------
------------------------------------------------------------------------------
------------------------------------------------------------------------------
                             
Submit corrections


        Down lessons Hard to play? Try these video lessons and learn fast Down lessons
        
↑ Back to top | Tablatures and chords for acoustic guitar and electric guitar, ukulele, drums are parodies/interpretations of the original songs. You may use it for private study, scholarship, research or language learning purposes only