Home » P » Pearl Jam »

Pearl Jam - Do The Evolution Bass

Artists:  A B C D E F G H I J K L M N O P Q R S T U V W X Y Z # 

Do The Evolution Bass

(ver. 1) Click to play this song!
Pearl Jam
Pearl Jam - Do The Evolution


Tuning: Standard  EADG


Me speak english very bad. <>. Me hope this is helpful for you
guys. My best wishes! Cheers!


 Rest 4 bars
|--|--|--|--|
|--|--|--|--|
|--|--|--|--|
|--|--|--|--|

Bass come in
|-----------|--------3-|---------3-|-----------|
|---3-3-5-3-|---3-3-5--|---3-3-5---|---3-3-5-3-|
|-5--5------|-5--5-----|-5--5------|-5--5------|
|-----------|----------|-----------|-----------|

|-----------|--------3-|---------3-|-----------|
|---3-3-5-3-|---3-3-5--|---3-3-5---|---3-3-5-3-|
|-5--5------|-5--5-----|-5--5------|-5--5------|
|-----------|----------|-----------|-----------|

|-----------|--------3-|---------3-|--------3----|
|---3-3-5-3-|---3-3-5--|---3-3-5---|---3-3-5--35-|
|-5--5------|-5--5-----|-5--5------|-5--5--------|
|-----------|----------|-----------|-------------|

It's evolution baby!
|--------------------|
|--------------------|
|-33333333-2222-1111-|
|--------------------|

|---------3-|-----------|---------3-|-----------|
|---3-3-5---|---3-3-5-3-|---3-3-5---|---3-3-5-3-|
|-5--5------|-5--5------|-5--5------|-5--5------|
|-----------|-----------|-----------|-----------|

I'm in peace (?)
|-----------|----------|--------3-|-----------|
|---3-3-5-3-|---3-3--5-|---3-3-5--|---3-3-5-3-|
|-5--5------|-5--5--5--|-5--5-----|-5--5------|
|-----------|----------|----------|-----------|

|-----------|--------3-|---------3-|---------3----|
|---3-3-5-3-|---3-3-5--|---3-3-5---|---3-3-5---53-|
|-5--5------|-5--5-----|-5--5------|-5--5---------|
|-----------|----------|-----------|--------------|

|--------------------|---------3-|-----------|-----|  
|--------------------|---3-3-5---|---3-3-5-3-|  x 2|  
|-33333333-2222-1111-|-5--5------|-5--5------------| 
|--------------------|-----------|-----------------|

Rest 8 bars

 Admire me...
|-------------------------------------|
|------------------33333333-----------|
|-5555555555555555----------2222-1111-|
|-------------------------------------|

|------------7---7---7---7---7---7---7---7---7---7---7---7-|
|----------------------------------------------------------|
|-55555555-5---5---5---5---5---5---5---5---5---5---5---5---|
|----------------------------------------------------------|

|------------------------------------|
|-----------------33333333-----------|
|-555555555555555----------2222-3333-|
|------------------------------------|

|--------------------7---7---7---7---/7-5---5-------|
|-----------------------------------------7--7-5----|
|-5555555555555555-5---5---5---5---5-------------8\-|
|---------------------------------------------------|

|--------------------|
|--------------------|
|-33333333-2222-1111-|
|--------------------|

|-----------|--------3-|--------3-|-----------|
|---3-3-5-3-|---3-3-5--|---3-3-5--|---3-3-5-3-|
|-5--5------|-5--5-----|-5--5-----|-5--5------|
|-----------|----------|----------|-----------|

I'm a thief...
|-----------|--------3-|--------3-|-----------|
|---3-3-5-3-|---3-3-5--|---3-3-5--|---3-3-5---|
|-5--5------|-5--5-----|-5--5-----|-5--5---5\-|
|-----------|----------|----------|-----------|

Rest 4 bars

 Hallelujah
|--------------------------------------|
|-----------33333333-22222222/55555555-|
|-555555555----------------------------|
|--------------------------------------|

Admire me...
|-------------------------------------|
|------------------33333333-----------|
|-5555555555555555----------2222-1111-|
|-------------------------------------|

|-------------------------------------|
|----------33333333-22222222/55555555-|
|-55555555----------------------------|
|-------------------------------------|

|-------------------------------------|
|------------------33333333-----------|
|-5555555555555555----------2222-3333-|
|-------------------------------------|

|----------------------/7-/777-5------|
|--------------------------------8-5\-|
|-55555555555555555555----------------|
|-------------------------------------|

|--------------------|
|--------------------|
|-33333333-2222-1111-|
|--------------------|

Rest 2 bars

|----------|--------3-|----------|--------3-|-----------|----------|
|---3-3-5--|---3-3-5--|---3-3-5--|---3-3-5--|---3-3-5-3-|---3-3-5--|
|-5--5---5-|-5--5-----|-5--5---5-|-5--5-----|-5--5------|-5--5---5-|
|----------|----------|----------|----------|-----------|----------|

I am a head...
|-----------|--------3-|--------3-|-----------|
|---3-3-5-3-|---3-3-5--|---3-3-5--|---3-3-5-3-|
|-5--5------|-5--5-----|-5--5-----|-5--5------|
|-----------|----------|----------|-----------|

|-----------|--------3-|--------3-|------------|
|---3-3-5-3-|---3-3-5--|---3-3-5--|---3-3-5-3--|
|-5--5------|-5--5-----|-5--5-----|-5--5-----5-|
|-----------|----------|----------|------------|

|--------------------|-----------|--------3-|--|
|--------------------|---3-3-5-3-|---3-3-5-----|
|-33333333-2222-1111-|-5--5------|-5--5--------|
|--------------------|-----------|-------------|

Play this 'til fade out...
|-----------|--------3-|
|---3-3-5-3-|---3-3-5--|
|-5--5------|-5--5-----|
|-----------|----------|


That's all folks!
            
Submit corrections

↑ Back to top | Tablatures and chords for acoustic guitar and electric guitar, ukulele, drums are parodies/interpretations of the original songs. You may use it for private study, scholarship, research or language learning purposes only