» » »

Pearl Jam - Amongst The Waves Tabs

Artists:  A B C D E F G H I J K L M N O P Q R S T U V W X Y Z # 

Amongst The Waves Tabs

(ver. 2) Click to play this song!
Pearl Jam
 Rating:
3.6/5 (21 vote)

 Amongst The Waves lessons Tabs too difficult? Try these video lessons and learn fast
 
                Solo begins at 2:26

e|---------------------------|-------7-------------|
B|---------------------------|-----7----10p7----7--|
G|--16p14----14-16b17r16-14--|--9^-----------9^----|
D|--------16-----------------|---------------------|
A|---------------------------|---------------------|
E|---------------------------|---------------------|

e|-----------------------------|--------------|
B|--7^---7^-7^-7^----7^--------|--15b17^^-15--|
G|--9^---9^-9^-9^----9^r7---7--|--------------|
D|------------------------9----|--------------|
A|-----------------------------|--------------|
E|-----------------------------|--------------|

e|-----------------------------------------------------------|
B|-----------15----------------------------------------------|
G|--16p14h16---16p14----14-----------------------------------|
D|-------------------16----16p14/12--------14b+r12----12vvv--|
A|----------------------------------14-------------14--------|
E|-----------------------------------------------------------|

e|------------------------------------------------|
B|--15p12------15p12-15p12------15p12----15^^vvv--|
G|--------14---------------14---------14----------|
D|------------------------------------------------|
A|------------------------------------------------|
E|------------------------------------------------|

e|-------------------------|-------------------------|
B|-------------------------|--------15-17p15----15b--|
G|--------16p14-------14v--|--14-16----------16------|
D|--14h16-------14/16------|-------------------------|
A|-------------------------|-------------------------|
E|-------------------------|-------------------------|

e|-------------------------|---------------------------|
B|-/10-7-------------------|-------12-15p12------------|
G|-------9p7-9p7-----------|--9/11----------14/16-16v--|
D|---------------9-9/11-9--|---------------------------|
A|-------------------------|---------------------------|
E|-------------------------|---------------------------|

e|---------------------------------|----------------------------|
B|--17b19r17-15-19-17-15----17vvv--|--------waves...--17-16vvv--|
G|-----------------------16--------|----------------------------|
D|---------------------------------|----------------------------|
A|---------------------------------|----------------------------|
E|---------------------------------|----------------------------|


  at 3:35                 at 3:42
e|----------------------|------------------|
B|--17b19r17vvv---16vv--|--19-17vvv--16vv--|
G|----------------------|------------------|
D|----------------------|------------------|
A|----------------------|------------------|
E|----------------------|------------------|



            
Submit corrections


        Amongst The Waves lessons Hard to play? Try these video lessons and learn fast Amongst The Waves lessons
        
↑ Back to top | Tablatures and chords for acoustic guitar and electric guitar, ukulele, drums are parodies/interpretations of the original songs. You may use it for private study, scholarship, research or language learning purposes only