Home » P » Peaches »

Peaches - Sucker Tabs

Artists:  A B C D E F G H I J K L M N O P Q R S T U V W X Y Z # 

Sucker Tabs

(ver. 1) Click to play this song!
Peaches
e|-----------5--8--8-----5----|-----5----------------------|
B|----------------------------|----------------------------|
G|----------------------------|----------------------------|
D|----------------------------|----------------------------|
A|----------------------------|----------------------------|
E|----------------------------|----------------------------|


e|--------8--8--8--8-----5L---|--5-------------|--------8--8--8--8--8--8L---|
B|----------------------------|----------------|----------------------------|
G|----------------------------|----------------|----------------------------|
D|----------------------------|----------------|----------------------------|
A|----------------------------|----------------|----------------------------|
E|----------------------------|----------------|----------------------------|


e|--8--8----------------------|--------8--5--8--8-----5L---|--5-------------|
B|----------------------------|----------------------------|----------------|
G|----------------------------|----------------------------|----------------|
D|----------------------------|----------------------------|----------------|
A|----------------------------|----------------------------|----------------|
E|----------------------------|----------------------------|----------------|


e|-----------8--12-12-8--12---|-----8--8-------------------|
B|----------------------------|----------------------------|
G|----------------------------|----------------------------|
D|----------------------------|----------------------------|
A|----------------------------|----------------------------|
E|----------------------------|----------------------------|


e|--------8--8--8--8L-8--5L---|--5-------------------------|
B|----------------------------|----------------------------|
G|----------------------------|----------------------------|
D|----------------------------|----------------------------|
A|----------------------------|----------------------------|
E|----------------------------|----------------------------|


e|--------12-12-12-12-12-12---|-----8----------------------|
B|----------------------------|----------------------------|
G|----------------------------|----------------------------|
D|----------------------------|----------------------------|
A|----------------------------|----------------------------|
E|----------------------------|----------------------------|


e|--------8--8--8--8L-8--5L---|--5-------------------------|----|----|----|----|
B|----------------------------|----------------------------|----|----|----|----|
G|----------------------------|----------------------------|----|----|----|----|
D|----------------------------|----------------------------|----|----|----|----|
A|----------------------------|----------------------------|----|----|----|----|
E|----------------------------|----------------------------|----|----|----|----|


e|----|----|----|----|----|-----------8--8--8--8--8L---|
B|----|----|----|----|----|----------------------------|
G|----|----|----|----|----|----------------------------|
D|----|----|----|----|----|----------------------------|
A|----|----|----|----|----|----------------------------|
E|----|----|----|----|----|----------------------------|


e|--8--8----------------------|--------8--8--8--8--8--8L---|
B|----------------------------|----------------------------|
G|----------------------------|----------------------------|
D|----------------------------|----------------------------|
A|----------------------------|----------------------------|
E|----------------------------|----------------------------|


e|--8--8----------------------|-----------8--8--8--8--8L---|
B|----------------------------|----------------------------|
G|----------------------------|----------------------------|
D|----------------------------|----------------------------|
A|----------------------------|----------------------------|
E|----------------------------|----------------------------|


e|--8--8----------------------|-----------8--8--8--8--8L---|
B|----------------------------|----------------------------|
G|----------------------------|----------------------------|
D|----------------------------|----------------------------|
A|----------------------------|----------------------------|
E|----------------------------|----------------------------|


e|--8--8----------------------|-----------8--12-12-8--12---|
B|----------------------------|----------------------------|
G|----------------------------|----------------------------|
D|----------------------------|----------------------------|
A|----------------------------|----------------------------|
E|----------------------------|----------------------------|


e|-----8--12------------------|--------8--8--8--8L-8--5L---|
B|----------------------------|----------------------------|
G|----------------------------|----------------------------|
D|----------------------------|----------------------------|
A|----------------------------|----------------------------|
E|----------------------------|----------------------------|


e|--5-------------------------|--------12-12-12-12-12-12---|
B|----------------------------|----------------------------|
G|----------------------------|----------------------------|
D|----------------------------|----------------------------|
A|----------------------------|----------------------------|
E|----------------------------|----------------------------|


e|-----8----------------------|--------12-12L12-12L12-12L--|
B|----------------------------|----------------------------|
G|----------------------------|----------------------------|
D|----------------------------|----------------------------|
A|----------------------------|----------------------------|
E|----------------------------|----------------------------|


e|--12------------------------|--------------12-12---------|
B|----------------------------|----------------------------|
G|----------------------------|----------------------------|
D|----------------------------|----------------------------|
A|----------------------------|----------------------------|
E|----------------------------|----------------------------|


e|--------------12-12---------|----|----|--------------12-12---------|
B|----------------------------|----|----|----------------------------|
G|----------------------------|----|----|----------------------------|
D|----------------------------|----|----|----------------------------|
A|----------------------------|----|----|----------------------------|
E|----------------------------|----|----|----------------------------|


e|-----------12-12-12---------|----|----|--------------12-12---------|
B|----------------------------|----|----|----------------------------|
G|----------------------------|----|----|----------------------------|
D|----------------------------|----|----|----------------------------|
A|----------------------------|----|----|----------------------------|
E|----------------------------|----|----|----------------------------|


e|-----------12-12-12---------|----|----|----|----|----|----|----|----|----|----|
B|----------------------------|----|----|----|----|----|----|----|----|----|----|
G|----------------------------|----|----|----|----|----|----|----|----|----|----|
D|----------------------------|----|----|----|----|----|----|----|----|----|----|
A|----------------------------|----|----|----|----|----|----|----|----|----|----|
E|----------------------------|----|----|----|----|----|----|----|----|----|----|


e|----|----|----|----|----|----|-----------5--8--8-----5----|
B|----|----|----|----|----|----|----------------------------|
G|----|----|----|----|----|----|----------------------------|
D|----|----|----|----|----|----|----------------------------|
A|----|----|----|----|----|----|----------------------------|
E|----|----|----|----|----|----|----------------------------|


e|-----5----------------------|--------8--8--8--8-----5L---|--5-------------|
B|----------------------------|----------------------------|----------------|
G|----------------------------|----------------------------|----------------|
D|----------------------------|----------------------------|----------------|
A|----------------------------|----------------------------|----------------|
E|----------------------------|----------------------------|----------------|


e|--------8--8--8--8--8--8L---|--8--8----------------------|
B|----------------------------|----------------------------|
G|----------------------------|----------------------------|
D|----------------------------|----------------------------|
A|----------------------------|----------------------------|
E|----------------------------|----------------------------|


e|--------8--5--8--8-----5L---|--5-------------|-----------12-12-12-12-12---|
B|----------------------------|----------------|----------------------------|
G|----------------------------|----------------|----------------------------|
D|----------------------------|----------------|----------------------------|
A|----------------------------|----------------|----------------------------|
E|----------------------------|----------------|----------------------------|


e|-----12-12------------------|--------8--8--8--8L-8--5L---|
B|----------------------------|--------17-17-17-17L17-17L--|
G|----------------------------|----------------------------|
D|----------------------------|----------------------------|
A|----------------------------|----------------------------|
E|----------------------------|----------------------------|


e|--5-------------------------|--------12-12-12-12-12-12---|
B|--17------------------------|----------------------------|
G|----------------------------|----------------------------|
D|----------------------------|----------------------------|
A|----------------------------|----------------------------|
E|----------------------------|----------------------------|


e|-----8----------------------|--------12-12L12-12-12-12L--|
B|----------------------------|----------------------------|
G|----------------------------|----------------------------|
D|----------------------------|----------------------------|
A|----------------------------|----------------------------|
E|----------------------------|----------------------------|


e|--12------------------------|--------------12-12---------|
B|----------------------------|----------------------------|
G|----------------------------|----------------------------|
D|----------------------------|----------------------------|
A|----------------------------|----------------------------|
E|----------------------------|----------------------------|


e|--------------12-12---------|----|----|--------------12-12---------|
B|----------------------------|----|----|----------------------------|
G|----------------------------|----|----|----------------------------|
D|----------------------------|----|----|----------------------------|
A|----------------------------|----|----|----------------------------|
E|----------------------------|----|----|----------------------------|


e|-----------12-12-12---------|----|----|--------------12-12---------|
B|----------------------------|----|----|----------------------------|
G|----------------------------|----|----|----------------------------|
D|----------------------------|----|----|----------------------------|
A|----------------------------|----|----|----------------------------|
E|----------------------------|----|----|----------------------------|


e|-----------12-12-12---------|----|----|----------------------------|
B|----------------------------|----|----|----------------------------|
G|----------------------------|----|----|-----------------x--x--x----|
D|----------------------------|----|----|----------------------------|
A|----------------------------|----|----|----------------------------|
E|----------------------------|----|----|----------------------------|


e|----------------------------|----|----|----|----|--------------12-12---------|
B|----------------------------|----|----|----|----|----------------------------|
G|--x--x----------------------|----|----|----|----|----------------------------|
D|----------------------------|----|----|----|----|----------------------------|
A|----------------------------|----|----|----|----|----------------------------|
E|----------------------------|----|----|----|----|----------------------------|


e|--------------12-12---------|----|----|--------------12-12---------|
B|----------------------------|----|----|----------------------------|
G|----------------------------|----|----|----------------------------|
D|----------------------------|----|----|----------------------------|
A|----------------------------|----|----|----------------------------|
E|----------------------------|----|----|----------------------------|


e|-----------12-12-12---------|----|----|--------------12-12---------|
B|----------------------------|----|----|----------------------------|
G|----------------------------|----|----|----------------------------|
D|----------------------------|----|----|----------------------------|
A|----------------------------|----|----|----------------------------|
E|----------------------------|----|----|----------------------------|


e|-----------12-12-12---------|----|----|--------------12-12---------|
B|----------------------------|----|----|----------------------------|
G|----------------------------|----|----|----------------------------|
D|----------------------------|----|----|----------------------------|
A|----------------------------|----|----|----------------------------|
E|----------------------------|----|----|----------------------------|


e|-----------------12-5--5----|----|----|----|----|----|----|----|----|----||
B|----------------------------|----|----|----|----|----|----|----|----|----||
G|----------------------------|----|----|----|----|----|----|----|----|----||
D|----------------------------|----|----|----|----|----|----|----|----|----||
A|----------------------------|----|----|----|----|----|----|----|----|----||
E|----------------------------|----|----|----|----|----|----|----|----|----||            
Submit corrections

↑ Back to top | Tablatures and chords for acoustic guitar and electric guitar, ukulele, drums are parodies/interpretations of the original songs. You may use it for private study, scholarship, research or language learning purposes only