Home » P » Peaches »

Peaches - Bodyline Tabs

Artists:  A B C D E F G H I J K L M N O P Q R S T U V W X Y Z # 

Bodyline Tabs

(ver. 1) Click to play this song!
Peaches
E|----------------------------|----------------------------|
B|----------------------------|----------------------------|
G|----------------------------|----------------------------|
D|----------------------------|----------------------------|
A|----------------------------|----------------------------|
D|--0--3--5--0--3--5--0--3----|--5--0--3--5--0--5--3-------|


E|----------------------------|----------------------------|
B|----------------------------|----------------------------|
G|----------------------------|----------------------------|
D|----------------------------|----------------------------|
A|----------------------------|----------------------------|
D|--0--3--5--0--3--5--0--3----|--5--0--3--5--0--5--3-------|


E|----------------------------|----------------------------|
B|----------------------------|----------------------------|
G|----------------------------|----------------------------|
D|----------------------------|----------------------------|
A|----------------------------|----------------------------|
D|--0--3--5--0--3--5--0--3----|--5--0--3--5--0--5--3-------|


E|----------------------------|----------------------------|
B|----------------------------|----------------------------|
G|----------------------------|----------------------------|
D|----------------------------|----------------------------|
A|----------------------------|----------------------------|
D|--0--3--5--0--3--5--0--3----|--5--0--3--5--0--5--3-------|


E|----------------------------|----------------------------|
B|----------------------------|----------------------------|
G|----------------------------|----------------------------|
D|----------------------------|----------------------------|
A|----------------------------|----------------------------|
D|--0--3--5--0--3--5--0--3----|--5--0--3--5--0--5--3-------|


E|----------------------------|----------------------------|
B|----------------------------|----------------------------|
G|----------------------------|----------------------------|
D|----------------------------|----------------------------|
A|----------------------------|----------------------------|
D|--0--3--5--0--3--5--0--3----|--5--0--3--5--0--5--3-------|


E|----------------------------|----------------------------|
B|----------------------------|----------------------------|
G|----------------------------|----------------------------|
D|----------------------------|----------------------------|
A|----------------------------|----------------------------|
D|--0--3--5--0--3--5--0--3----|--5--0--3--5--0--5--3-------|


E|----------------------------|----------------------------|
B|----------------------------|----------------------------|
G|----------------------------|----------------------------|
D|----------------------------|----------------------------|
A|----------------------------|----------------------------|
D|--0--3--5--0--3--5--0--3----|--5--0--3--5--0--5--3-------|


E|----------------------------|----------------------------|
B|----------------------------|----------------------------|
G|----------------------------|----------------------------|
D|----------------------------|----------------------------|
A|----------------------------|----------------------------|
D|--0--3--5--0--3--5--0--3----|--5--0--3--5--0--5--3-------|


E|----------------------------|----------------------------|
B|----------------------------|----------------------------|
G|----------------------------|----------------------------|
D|----------------------------|----------------------------|
A|----------------------------|----------------------------|
D|--0--3--5--0--3--5--0--3----|--5--0--3--5--0--5--3-------|


E|----------------------------|----------------------------|
B|----------------------------|----------------------------|
G|----------------------------|----------------------------|
D|----------------------------|----------------------------|
A|----------------------------|----------------------------|
D|--0--3--5--0--3--5--0--3----|--5--0--3--5--0--5--3-------|


E|----------------------------|----------------------------|
B|----------------------------|----------------------------|
G|----------------------------|----------------------------|
D|----------------------------|----------------------------|
A|----------------------------|----------------------------|
D|--0--3--5--0--3--5--0--3----|--5--0--3--5--0--5--3-------|


E|----------------------------|----------------------------|
B|----------------------------|----------------------------|
G|----------------------------|----------------------------|
D|----------------------------|----------------------------|
A|----------------------------|----------------------------|
D|--0--0--0--0----------------|--0--0--0--0----------------|


E|----------------------------|----------------------------|
B|----------------------------|----------------------------|
G|----------------------------|----------------------------|
D|----------------------------|----------------------------|
A|----------------------------|----------------------------|
D|--0--0--0--0----------------|--0--0--0--0-----------2----|


E|----------------------------|----------------------------|
B|----------------------------|----------------------------|
G|----------------------------|----------------------------|
D|----------------------------|----------------------------|
A|----------------------------|----------------------------|
D|--3--------2--3--------2----|--3--------2--3--------2----|


E|----------------------------|----------------------------|
B|----------------------------|----------------------------|
G|----------------------------|----------------------------|
D|----------------------------|----------------------------|
A|----------------------------|----------------------------|
D|--3--------2--3--------2----|--3--------2--3--------2----|


E|----------------------------|----------------------------|
B|----------------------------|----------------------------|
G|----------------------------|----------------------------|
D|----------------------------|----------------------------|
A|----------------------------|----------------------------|
D|--0--0--0--0----------------|--0--0--0--0----------------|


E|----------------------------|----------------------------|
B|----------------------------|----------------------------|
G|----------------------------|----------------------------|
D|----------------------------|----------------------------|
A|----------------------------|----------------------------|
D|--0--0--0--0----------------|--0--0--0--0-----------2----|


E|----------------------------|----------------------------|
B|----------------------------|----------------------------|
G|----------------------------|----------------------------|
D|----------------------------|----------------------------|
A|----------------------------|----------------------------|
D|--3--------2--3--------2----|--3--------2--3--------2----|


E|----------------------------|----------------------------|
B|----------------------------|----------------------------|
G|----------------------------|----------------------------|
D|----------------------------|----------------------------|
A|----------------------------|----------------------------|
D|--3--------2--3--------2----|--3--------2--3-------------|


E|----------------------------|----------------------------|
B|----------------------------|----------------------------|
G|----------------------------|----------------------------|
D|----------------------------|----------------------------|
A|----------------------------|----------------------------|
D|--0--3--5--0--3--5--0--3----|--5--0--3--5--0--5--3-------|


E|----------------------------|----------------------------|
B|----------------------------|----------------------------|
G|----------------------------|----------------------------|
D|----------------------------|----------------------------|
A|----------------------------|----------------------------|
D|--0--3--5--0--3--5--0--3----|--5--0--3--5--0--5--3-------|


E|----------------------------|----------------------------|
B|----------------------------|----------------------------|
G|----------------------------|----------------------------|
D|----------------------------|----------------------------|
A|----------------------------|----------------------------|
D|--0--3--5--0--3--5--0--3----|--5--0--3--5--0--5--3-------|


E|----------------------------|----------------------------|
B|----------------------------|----------------------------|
G|----------------------------|----------------------------|
D|----------------------------|----------------------------|
A|----------------------------|----------------------------|
D|--0--3--5--0--3--5--0--3----|--5--0--3--5--0--5--3-------|


E|----------------------------|----------------------------|
B|----------------------------|----------------------------|
G|----------------------------|----------------------------|
D|----------------------------|----------------------------|
A|----------------------------|----------------------------|
D|--0--0--0--0----------------|--0--0--0--0----------------|


E|----------------------------|----------------------------|
B|----------------------------|----------------------------|
G|----------------------------|----------------------------|
D|----------------------------|----------------------------|
A|----------------------------|----------------------------|
D|--0--0--0--0----------------|--0--0--0--0-----------2----|


E|----------------------------|----------------------------|
B|----------------------------|----------------------------|
G|----------------------------|----------------------------|
D|----------------------------|----------------------------|
A|----------------------------|----------------------------|
D|--3--------2--3--------2----|--3--------2--3--------2----|


E|----------------------------|----------------------------|
B|----------------------------|----------------------------|
G|----------------------------|----------------------------|
D|----------------------------|----------------------------|
A|----------------------------|----------------------------|
D|--3--------2--3--------2----|--3--------2--3--------2----|


E|----------------------------|----------------------------|
B|----------------------------|----------------------------|
G|----------------------------|----------------------------|
D|----------------------------|----------------------------|
A|----------------------------|----------------------------|
D|--0--0--0--0----------------|--0--0--0--0----------------|


E|----------------------------|----------------------------|
B|----------------------------|----------------------------|
G|----------------------------|----------------------------|
D|----------------------------|----------------------------|
A|----------------------------|----------------------------|
D|--0--0--0--0----------------|--0--0--0--0-----------2----|


E|----------------------------|----------------------------|
B|----------------------------|----------------------------|
G|----------------------------|----------------------------|
D|----------------------------|----------------------------|
A|----------------------------|----------------------------|
D|--3--------2--3--------2----|--3--------2--3--------2----|


E|----------------------------|----------------------------|----------------|
B|----------------------------|----------------------------|----------------|
G|----------------------------|----------------------------|----------------|
D|----------------------------|----------------------------|----------------|
A|----------------------------|----------------------------|----------------|
D|--3--------2--3--------2----|--3--------2--3-------------|--0--0--0-------|


E|----------------|----------------|----------|----------------|----------------|
B|----------------|----------------|----------|----------------|----------------|
G|----------------|----------------|----------|----------------|----------------|
D|----------------|----------------|----------|----------------|----------------|
A|----------------|----------------|----------|----------------|----------------|
D|--0--0--0-------|--0--0--0-------|--0-------|--0--0--0-------|--0--0--0-------|


E|----------------|----------|----------------------------|
B|----------------|----------|----------------------------|
G|----------------|----------|----------------------------|
D|----------------|----------|----------------------------|
A|----------------|----------|----------------------------|
D|--0--0--0-------|--0-------|--0--0--0--0--0--0--0--0----|


E|----------------------------|----------------------------|
B|----------------------------|----------------------------|
G|----------------------------|----------------------------|
D|----------------------------|----------------------------|
A|----------------------------|----------------------------|
D|--0--0--0--0--0--0--0--0----|--0--0--0--0--0--0--0--0----|


E|----------------------------|----------------------------|
B|----------------------------|----------------------------|
G|----------------------------|----------------------------|
D|----------------------------|----------------------------|
A|----------------------------|----------------------------|
D|--0--0--0--0--0--0--0--0----|--0--0--0--0--0--0--0--0----|


E|----------------------------|----------------------------|
B|----------------------------|----------------------------|
G|----------------------------|----------------------------|
D|----------------------------|----------------------------|
A|----------------------------|----------------------------|
D|--0--0--0--0--0--0--0--0----|--0--0--0--0--0--0--0--0----|


E|----------------------------|----------------------------|
B|----------------------------|----------------------------|
G|----------------------------|----------------------------|
D|----------------------------|----------------------------|
A|----------------------------|----------------------------|
D|--0--0--0--0--0--0--0--0----|--0--3--5--0--3--5--0--3----|


E|----------------------------|----------------------------|
B|----------------------------|----------------------------|
G|----------------------------|----------------------------|
D|----------------------------|----------------------------|
A|----------------------------|----------------------------|
D|--5--0--3--5--0--5--3-------|--0--3--5--0--3--5--0--3----|


E|----------------------------|----------------------------|
B|----------------------------|----------------------------|
G|----------------------------|----------------------------|
D|----------------------------|----------------------------|
A|----------------------------|----------------------------|
D|--5--0--3--5--0--5--3-------|--0--3--5--0--3--5--0--3----|


E|----------------------------|----------------------------|
B|----------------------------|----------------------------|
G|----------------------------|----------------------------|
D|----------------------------|----------------------------|
A|----------------------------|----------------------------|
D|--5--0--3--5--0--5--3-------|--0--3--5--0--3--5--0--3----|


E|----------------------------|----------------------------|
B|----------------------------|----------------------------|
G|----------------------------|----------------------------|
D|----------------------------|----------------------------|
A|----------------------------|----------------------------|
D|--5--0--3--5--0--5--3-------|--0--3--5--0--3--5--0--3----|


E|----------------------------|----------------------------|
B|----------------------------|----------------------------|
G|----------------------------|----------------------------|
D|----------------------------|----------------------------|
A|----------------------------|----------------------------|
D|--5--0--3--5--0--5--3-------|--0--3--5--0--3--5--0--3----|


E|----------------------------|----------------------------|
B|----------------------------|----------------------------|
G|----------------------------|----------------------------|
D|----------------------------|----------------------------|
A|----------------------------|----------------------------|
D|--5--0--3--5--0--5--3-------|--0--3--5--0--3--5--0--3----|


E|----------------------------|----------------------------|
B|----------------------------|----------------------------|
G|----------------------------|----------------------------|
D|----------------------------|----------------------------|
A|----------------------------|----------------------------|
D|--5--0--3--5--0--5--3-------|--0--3--5--0--3--5--0--3----|


E|----------------------------|
B|----------------------------|
G|----------------------------|
D|----------------------------|
A|----------------------------|
D|--5--0--3--5--0--5--3-------|            
Submit corrections

↑ Back to top | Tablatures and chords for acoustic guitar and electric guitar, ukulele, drums are parodies/interpretations of the original songs. You may use it for private study, scholarship, research or language learning purposes only