Home » P » Paul Van Dyk »

Paul Van Dyk - Let Go Tabs

Artists:  A B C D E F G H I J K L M N O P Q R S T U V W X Y Z # 

Let Go Tabs

(ver. 1) Click to play this song!
Paul Van Dyk
 Rating:
4/5 (6 votes)
                PAUL VAN DYK
LET GO-TAB

PLEASE RATE

I DONT REMEMBER THE TUNING BECOUSE I HAVE A 7 STRING GUITAR  AND I THINK THE TUNING 
BE "D" OR YOU CAN TRY WHIT "E" IF YOU WANT

RIFF 1
 pm pm pm pm
1--------------------------------------------------------------------------------------|
2----------------------------------------------------------------------------17----17--|
3---------------------16-17----16-17----17-19-16-------16-17---17-19----17-16----16----|
4----------------7~-14------17--------17------------14-------17-------17---------------|
5-0-0-0-0-(alot)-5~~~~~~~~~~~~~~~~~~~~~~~~~~~~~~~~~~~~~~~~~~~~~~~~~~~~~~~~~~~~~~~~~~~~-|
6--------------------------------------------------------------------------------------|

RIFF 2 (x4)
ALL P.M
1--------------------------------------------------------------------------------------|
2--------------------------------------------------------------------------------------|
3--------------------------------------------------------------------------------------|
5------------------------------------5-5-5-5-5-5-5-5-----------------------------------|
5-0-0-0-0-0-0-0-0---7-7-7-7-7-7-7-7--3-3-3-3-3-3-3-3---2-2-2-2-2-2-2-2-----------------|
6-------------------0-0-0-0-0-0-0-0--------------------0-0-0-0-0-0-0-0-----------------|

THEN COMES SLOWLY

min. 0:45

1----------------------|------------------------------------------|
2----------------------|------------------------------------------|
3----------------------|------------------------------------------|
4----------------------|------------------------------------------|
5--3~-0~----2~----(x3)-|------------------------------------------|
6--------3~------------|------------------------------------------|

or this, im not sure           then SLOWLY riff 1

1---------------------------|---------------------------------------|
2---------------------------|------------------------------17----17-|
3-----16~~~-17~~~------(x3)-|---16-17----16-17----17-19-16----16----|
4--14~~~----------17~~~-----|14------17-------17--------------------|
5---------------------------|---------------------------------------|
6---------------------------|---------------------------------------|


RIFF 1 (like X4 hear the song)
1----------------------------------------------------------------------|
2-------------------------------------------------------------17----17-|
3-----16-17----16-17----17-19-16-------16-17---17-19----17-16----16----|
4--14------17--------17------------14-------17-------17----------------|
5----------------------------------------------------------------------|
6----------------------------------------------------------------------|

BUT YOU STILL WITH THE:

ALL PM
1--------------------------------------------------------------------------------------|
2--------------------------------------------------------------------------------------|
3--------------------------------------------------------------------------------------|
5------------------------------------5-5-5-5-5-5-5-5-----------------------------------|
5-0-0-0-0-0-0-0-0---7-7-7-7-7-7-7-7--3-3-3-3-3-3-3-3---2-2-2-2-2-2-2-2-----------------|
6-------------------0-0-0-0-0-0-0-0--------------------0-0-0-0-0-0-0-0-----------------|

MIN 1:42

1----------------------|-----------------------------------------|
2----------------------|-----------------------------------------|
3----------------------|-----------------------------------------|
4----------------------|-----------------------------------------|
5--3~-0~----2~----(x6)-|-----------------------------------------|
6--------3~------------|-----------------------------------------|

WITH

RIFF 1 (X3)
1--------------------------------------------------------------------------|
2-------------------------------------------------------------17----17-----|
3-----16-17----16-17----17-19-16-------16-17---17-19----17-16----16--------|
4--14------17--------17------------14-------17-------17--------------------|
5--------------------------------------------------------------------------|
6--------------------------------------------------------------------------|

end

ALL PM
1--------------------------------------------------------------------------------------|
2--------------------------------------------------------------------------------------|
3--------------------------------------------------------------------------------------|
5------------------------------------5-5-5-5-5-5-5-5-----------------------------------|
5-0-0-0-0-0-0-0-0---7-7-7-7-7-7-7-7--3-3-3-3-3-3-3-3---2-2-2-2-2-2-2-2-----------------|
6-------------------0-0-0-0-0-0-0-0--------------------0-0-0-0-0-0-0-0-----------------|
            
Submit corrections

↑ Back to top | Tablatures and chords for acoustic guitar and electric guitar, ukulele, drums are parodies/interpretations of the original songs. You may use it for private study, scholarship, research or language learning purposes only