» » »

Paul Simon - Slip Slidin Away Tabs

Artists:  A B C D E F G H I J K L M N O P Q R S T U V W X Y Z # 

Slip Slidin Away Tabs

(ver. 1) Click to play this song!
Paul Simon
 Rating:
3.4/5 (29 votes)

 Slip Slidin Away lessons Tabs too difficult? Try these video lessons and learn fast
 
                   Intro
    Q=120(8=s8)
    G   C/G       C/G         C/G
   4/4
    Gtr I (Ac. Gtr. w/ capo 1st fret)
    E E E E +E  E E E   +E  E E E +E  E E E
||--3-3-3-3-(3)-3-3-3-|-(3)-3-3-3-(3)-3-3-3-|
||o-0-0-1-0-(0)-0-1-0-|-(0)-0-1-0-(0)-0-0-0-|
||--0-0-0-0-(0)-0-0-0-|-(0)-0-0-0-(0)-0-0-0-|
||--0-0-2-0-(0)-0-2-0-|-(0)-0-2-0-(0)-0-0-0-|
||o-------------------|---------------------|
||--3-3-3-3-(3)-3-3-3-|-(3)-3-3-3-(3)-3-3-3-|


  Em
  E E E E +E  E E E   E E E E +E  E E E
|-0-0-0-0-(0)-0-0-0-|-0-0-0-0-(0)-0-0-0--||
|-0-0-0-0-(0)-0-0-0-|-0-0-0-0-(0)-0-0-0-o||
|-0-0-0-0-(0)-0-0-0-|-0-0-0-0-(0)-0-0-0--||
|-2-2-0-2-(2)-2-0-0-|-2-2-0-2-(2)-2-0-0--||
|-2-2-0-2-(2)-2-0-0-|-2-2-0-2-(2)-2-0-0-o||
|-0-0-0-0-(0)-0-0-0-|-0-0-0-0-(0)-0-0-0--||


 Chorus
  G   C/G       C/G         C/G
  E E E E +E  E E E   +E  E E E +E  E E E
|-3-3-3-3-(3)-3-3-3-|-(3)-3-3-3-(3)-3-3-3-|
|-0-0-1-0-(0)-0-1-0-|-(0)-0-1-0-(0)-0-0-0-|
|-0-0-0-0-(0)-0-0-0-|-(0)-0-0-0-(0)-0-0-0-|
|-0-0-2-0-(0)-0-2-0-|-(0)-0-2-0-(0)-0-0-0-|
|-2-----------------|---------------------|
|-3-3-3-3-(3)-3-3-3-|-(3)-3-3-3-(3)-3-3-3-|


  Em
  E E E E +E  E E E   E E E E +E  E E E
|-0-0-0-0-(0)-0-0-0-|-0-0-0-0-(0)-0-0-0-|
|-0-0-0-0-(0)-0-0-0-|-0-0-0-0-(0)-0-0-0-|
|-0-0-0-0-(0)-0-0-0-|-0-0-0-0-(0)-0-0-0-|
|-2-2-0-2-(2)-2-0-0-|-2-2-0-2-(2)-2-0-0-|
|-2-2-0-2-(2)-2-0-0-|-2-2-0-2-(2)-2-0-0-|
|-0-0-0-0-(0)-0-0-0-|-0-0-0-0-(0)-0-0-0-|


  G      D        C      D        G   C/G       C/G         C/G
  E E Q  E E Q    E E Q  E E Q    E E E E +E  E E E   +E  E E E +E  E E E
|-3-3-3--2-2-2--|-0-0-0--2-2-2--|-3-3-3-3-(3)-3-3-3-|-(3)-3-3-3-(3)-3-3-3-||
|-0-0-0--3-3-3--|-1-1-1--3-3-3--|-0-0-1-0-(0)-0-1-0-|-(0)-0-1-0-(0)-0-0-0-||
|-0-0-0--2-2-2--|-0-0-0--2-2-2--|-0-0-0-0-(0)-0-0-0-|-(0)-0-0-0-(0)-0-0-0-||
|-0-0-0--0-0-0--|-2-2-2--0-0-0--|-0-0-2-0-(0)-0-2-0-|-(0)-0-2-0-(0)-0-0-0-||
|---------------|-3-3-3---------|-2-----------------|---------------------||
|-3-3-3---------|---------------|-3-3-3-3-(3)-3-3-3-|-(3)-3-3-3-(3)-3-3-3-||


   1st - 3rd Verses
    $$
    Em
    E E E E +E  E E E   E E E E +E  E E E
||--0-0-0-0-(0)-0-0-0-|-0-0-0-0-(0)-0-0-0-|
||o-0-0-0-0-(0)-0-0-0-|-0-0-0-0-(0)-0-0-0-|
||--0-0-0-0-(0)-0-0-0-|-0-0-0-0-(0)-0-0-0-|
||--2-2-0-2-(2)-2-0-0-|-2-2-0-2-(2)-2-0-0-|
||o-2-2-0-2-(2)-2-0-0-|-2-2-0-2-(2)-2-0-0-|
||--0-0-0-0-(0)-0-0-0-|-0-0-0-0-(0)-0-0-0-|


  G   C/G       C/G         C/G
  E E E E +E  E E E   +E  E E E +E  E E E
|-3-3-3-3-(3)-3-3-3-|-(3)-3-3-3-(3)-3-3-3--|
|-0-0-1-0-(0)-0-1-0-|-(0)-0-1-0-(0)-0-0-0--|
|-0-0-0-0-(0)-0-0-0-|-(0)-0-0-0-(0)-0-0-0--|
|-0-0-2-0-(0)-0-2-0-|-(0)-0-2-0-(0)-0-0-0--|
|-2-----------------|----------------------|
|-3-3-3-3-(3)-3-3-3-|-(3)-3-3-3-(3)-3-3-3--|


  C      D        C                     C7              G   C/G       C/G
  E E Q  E E Q    E E E E +E  E E E   E E E E E E E E   E E E E +E  E E E
|-0-0-0--2-2-2--|-0-0-0-0-(0)-0-0-0-|-0-0-0-0-0-0-0-0-|-3-3-3-3-(3)-3-3-3-|
|-1-1-1--3-3-3--|-1-1-1-1-(1)-1-1-1-|-1-1-1-1-1-1-1-1-|-0-0-1-0-(0)-0-1-0-|
|-0-0-0--2-2-2--|-0-0-0-0-(0)-0-0-0-|-0-3-3-3-3-3-3-3-|-0-0-0-0-(0)-0-0-0-|
|-2-2-2--0-0-0--|-2-2-2-2-(2)-2-2-2-|-2-2-2-2-2-2-2-2-|-0-0-2-0-(0)-0-2-0-|
|-3-3-3---------|-3-3-3-3-(3)-3-3-3-|-3-3-3-3-3-3-3-3-|-2-----------------|
|---------------|-------------------|-----------------|-3-3-3-3-(3)-3-3-3-|


        C/G             Em
  +E  E E E +E  E E E   E E E E +E  E E E
|-(3)-3-3-3-(3)-3-3-3-|-0-0-0-0-(0)-0-0-0-|
|-(0)-0-1-0-(0)-0-0-0-|-0-0-0-0-(0)-0-0-0-|
|-(0)-0-0-0-(0)-0-0-0-|-0-0-0-0-(0)-0-0-0-|
|-(0)-0-2-0-(0)-0-0-0-|-2-2-0-2-(2)-2-0-0-|
|---------------------|-2-2-0-2-(2)-2-0-0-|
|-(3)-3-3-3-(3)-3-3-3-|-0-0-0-0-(0)-0-0-0-|


                      G     D         C
  E E E E +E  E E E   E E E E +E  E E E
|-0-0-0-0-(0)-0-0-0-|-3-3-3-2-(2)-2-2-0-|
|-0-0-0-0-(0)-0-0-0-|-0-0-0-3-(3)-3-3-1-|
|-0-0-0-0-(0)-0-0-0-|-0-0-0-2-(2)-2-2-0-|
|-2-2-0-2-(2)-2-0-0-|-0-0-0-0-(0)-0-0-2-|
|-2-2-0-2-(2)-2-0-0-|-----------------3-|
|-0-0-0-0-(0)-0-0-0-|-3-3-3-------------|


                                                       Chorus
                                  To Dbl. Coda       $
          D             G   C/G       C/G               G   C/G       C/G
  +E  E E E +E  E E E   E E E E +E  E E E   W           E E E E +E  E E E
|-(0)-0-0-2-(2)-2-2-2-|-3-3-3-3-(3)-3-3-3-|-3--------||-3-3-3-3-(3)-3-3-3-|
|-(1)-1-1-3-(3)-3-3-3-|-0-0-1-0-(0)-0-1-0-|-0--------||-0-0-1-0-(0)-0-1-0-|
|-(0)-0-0-2-(2)-2-2-2-|-0-0-0-0-(0)-0-0-0-|-0--------||-0-0-0-0-(0)-0-0-0-|
|-(2)-2-2-0-(0)-0-0-0-|-0-0-2-0-(0)-0-2-0-|-0--------||-0-0-2-0-(0)-0-2-0-|
|-(3)-3-3-------------|-2-----------------|----------||-2-----------------|
|---------------------|-3-3-3-3-(3)-3-3-3-|-3--------||-3-3-3-3-(3)-3-3-3-|


        C/G             Em                                      G      D
  +E  E E E +E  E E E   E E E E +E  E E E   E E E E +E  E E E   E E Q  E E Q
|-(3)-3-3-3-(3)-3-3-3-|-0-0-0-0-(0)-0-0-0-|-0-0-0-0-(0)-0-0-0-|-3-3-3--2-2-2--|
|-(0)-0-1-0-(0)-0-0-0-|-0-0-0-0-(0)-0-0-0-|-0-0-0-0-(0)-0-0-0-|-0-0-0--3-3-3--|
|-(0)-0-0-0-(0)-0-0-0-|-0-0-0-0-(0)-0-0-0-|-0-0-0-0-(0)-0-0-0-|-0-0-0--2-2-2--|
|-(0)-0-2-0-(0)-0-0-0-|-2-2-0-2-(2)-2-0-0-|-2-2-0-2-(2)-2-0-0-|-0-0-0--0-0-0--|
|---------------------|-2-2-0-2-(2)-2-0-0-|-2-2-0-2-(2)-2-0-0-|---------------|
|-(3)-3-3-3-(3)-3-3-3-|-0-0-0-0-(0)-0-0-0-|-0-0-0-0-(0)-0-0-0-|-3-3-3---------|


  1.
  C      D
  E E Q  E E Q    E E E E +E  E E E   +E  E E E +E  E E E
|-0-0-0--2-2-2--|-3-3-3-3-(3)-3-3-3-|-(3)-3-3-3-(3)-3-3-3--||
|-1-1-1--3-3-3--|-0-0-1-0-(0)-0-1-0-|-(0)-0-1-0-(0)-0-0-0-o||
|-0-0-0--2-2-2--|-0-0-0-0-(0)-0-0-0-|-(0)-0-0-0-(0)-0-0-0--||
|-2-2-2--0-0-0--|-0-0-2-0-(0)-0-2-0-|-(0)-0-2-0-(0)-0-0-0--||
|-3-3-3---------|-2-----------------|---------------------o||
|---------------|-3-3-3-3-(3)-3-3-3-|-(3)-3-3-3-(3)-3-3-3--||


  2.,D.S.
  C      D        G   C/G         F
  E E Q  E E Q    E E E E +E  E E E
|-0-0-0--2-2-2--|-3-3-3-3-(3)-3-3-1-|
|-1-1-1--3-3-3--|-0-0-1-0-(0)-0-0-1-|
|-0-0-0--2-2-2--|-0-0-0-0-(0)-0-0-2-|
|-2-2-2--0-0-0--|-0-0-2-0-(0)-0-0-3-|
|-3-3-3---------|-2---------------3-|
|---------------|-3-3-3-3-(3)-3-3-1-|


               To Coda
          C7        G          C/G     C/G
  +E  E E E +E  E E E    +E  E E E E E E E
|-(1)-1-x-0-(0)-0-0-3--|-(3)-3-3-3-3-3-3-3--|
|-(1)-1-x-1-(1)-1-1-0--|-(0)-0-1-0-0-0-1-0--|
|-(2)-2-x-3-(3)-3-3-0--|-(0)-0-0-0-0-0-0-0--|
|-(3)-3-x-2-(2)-2-2-0--|-(0)-0-2-0-0-0-2-0--|
|-(3)-3-x-3-(3)-3-3----|--------------------|
|-(1)-1-x-----------3--|-(3)-3-3-3-3-3-3-3--|


                    Bridge
      C/G     C/G    Em    D            G   C/G             C      D
  E E E E E E E E    E E E E +E  E Q    E E E E +E  E E E   E E Q  E E Q
|-3-3-3-3-3-3-3-0-||-0-0-0-2-(2)-2-2--|-3-3-3-3-(3)-3-3-3-|-0-0-0--2-2-2--|
|-0-0-1-0-0-0-1-0-||-0-0-0-3-(3)-3-3--|-0-0-1-0-(0)-0-0-0-|-1-1-1--3-3-3--|
|-0-0-0-0-0-0-0-0-||-0-0-0-2-(2)-2-2--|-0-0-0-0-(0)-0-0-0-|-0-0-0--2-2-2--|
|-0-0-2-0-0-0-2-0-||-2-2-0-0-(0)-0-0--|-0-0-2-0-(0)-0-0-0-|-2-2-2--0-0-0--|
|---------------0-||-2-2-0------------|-2-----------------|-3-3-3---------|
|-3-3-3-3-3-3-3-0-||-0-0-0------------|-3-3-3-3-(3)-3-3-3-|---------------|


  C                  C7                G   C/G     C/G       C/G
  Q  E E +E  E E E   E E E E E E E E   E E E E E E E E   E E E E E E E E
|-0--0-0-(0)-0-0-0-|-----------------|-3-3-3-3-3-3-3-3-|-3-3-3-3-3-3-3-3-|
|-1--1-1-(1)-1-1-1-|-1-1-1-1-1-1-1-1-|-0-0-1-0-0-0-1-0-|-0-0-1-0-0-0-0-0-|
|-0--0-0-(0)-0-0-0-|-3-3-3-3-3-3-3-3-|-0-0-0-0-0-0-0-0-|-0-0-0-0-0-0-0-0-|
|-2--2-2-(2)-2-2-2-|-2-2-2-2-2-2-2-2-|-0-0-2-0-0-0-2-0-|-0-0-2-0-0-0-0-0-|
|-3--3-3-(3)-3-3-3-|-3-3-3-3-3-3-3-3-|-----------------|-----------------|
|------------------|-----------------|-3-3-3-3-3-3-3-3-|-3-3-3-3-3-3-3-3-|


  Em                                    G     D         C         D       G
  Q  E E +E  E E E   Q  E E +E  E E E   E E E E +E  E E E   E E E E E E E E
|-0--0-0-(0)-0-0-0-|-0--0-0-(0)-0-0-0-|-3-3-3-2-(2)-2-2-0-|-0-0-0-2-2-2-2-3-|
|-0--0-0-(0)-0-0-0-|-0--0-0-(0)-0-0-0-|-0-0-0-3-(3)-3-3-1-|-1-1-1-3-3-3-3-0-|
|-0--0-0-(0)-0-0-0-|-0--0-0-(0)-0-0-0-|-0-0-0-2-(2)-2-2-0-|-0-0-0-2-2-2-2-0-|
|-2--0-2-(2)-2-0-0-|-2--0-2-(2)-2-0-0-|-0-0-0-0-(0)-0-0-2-|-2-2-2-0-0-0-0-0-|
|-2--0-2-(2)-2-0-0-|-2--0-2-(2)-2-0-0-|-----------------3-|-3-3-3-----------|
|-0--0-0-(0)-0-0-0-|-0--0-0-(0)-0-0-0-|-3-3-3-------------|---------------3-|


          D.S. al Coda       &
      C/G     C/G               G   C/G         F         C7      G
  E E E E E E E E   W           E E E E +E  E E E   E E E E E E E E
|-3-3-3-3-3-3-3-3-|-3--------||-3-3-3-3-(3)-3-3-1-|---1---0---0---3-|
|-0-0-1-0-0-0-1-0-|-0--------||-0-0-1-0-(0)-0-0-1-|---1---1---1---0-|
|-0-0-0-0-0-0-0-0-|-0--------||-0-0-0-0-(0)-0-0-2-|---2---3---3---0-|
|-0-0-2-0-0-0-2-0-|-0--------||-0-0-2-0-(0)-0-0-3-|---3---2---2---0-|
|-2---------------|----------||-2---------------3-|---3---3---3-----|
|-3-3-3-3-3-3-3-3-|-3--------||-3-3-3-3-(3)-3-3-1-|---1-----------3-|


                 D.S.S. al Dbl. Coda   &&
        C/G     C/G         C/G            G   C/G       C/G
  +E  E E E E E E E   +E  E E E +H         E E E E +E  E E E
|-(3)-3-3-3-3-3-3-3-|-(3)-3-3-3-(3)----||--3-3-3-3-(3)-3-3-3-|
|-(0)-0-1-0-0-0-1-0-|-(0)-0-1-0-(0)----||o-0-0-1-0-(0)-0-1-0-|
|-(0)-0-0-0-0-0-0-0-|-(0)-0-0-0-(0)----||--0-0-0-0-(0)-0-0-0-|
|-(0)-0-2-0-0-0-2-0-|-(0)-0-2-0-(0)----||--0-0-2-0-(0)-0-2-0-|
|-------------------|------------------||o-2-----------------|
|-(3)-3-3-3-3-3-3-3-|-(3)-3-3-3-(3)----||--3-3-3-3-(3)-3-3-3-|


        C/G             Em
  +E  E E E +E  E E E   E E E E +E  E E E
|-(3)-3-3-3-(3)-3-3-3-|-0-0-0-0-(0)-0-0-0-|
|-(0)-0-1-0-(0)-0-0-0-|-0-0-0-0-(0)-0-0-0-|
|-(0)-0-0-0-(0)-0-0-0-|-0-0-0-0-(0)-0-0-0-|
|-(0)-0-2-0-(0)-0-0-0-|-2-2-0-2-(2)-2-0-0-|
|---------------------|-2-2-0-2-(2)-2-0-0-|
|-(3)-3-3-3-(3)-3-3-3-|-0-0-0-0-(0)-0-0-0-|


                                                     1.
                      G      D        C      D        G   C/G       C/G
  E E E E +E  E E E   E E Q  E E Q    E E Q  E E Q    E E E E +E  E E E
|-0-0-0-0-(0)-0-0-0-|-3-3-3--2-2-2--|-0-0-0--2-2-2--|-3-3-3-3-(3)-3-3-3-|
|-0-0-0-0-(0)-0-0-0-|-0-0-0--3-3-3--|-1-1-1--3-3-3--|-0-0-1-0-(0)-0-1-0-|
|-0-0-0-0-(0)-0-0-0-|-0-0-0--2-2-2--|-0-0-0--2-2-2--|-0-0-0-0-(0)-0-0-0-|
|-2-2-0-2-(2)-2-0-0-|-0-0-0--0-0-0--|-2-2-2--0-0-0--|-0-0-2-0-(0)-0-2-0-|
|-2-2-0-2-(2)-2-0-0-|---------------|-3-3-3---------|-2-----------------|
|-0-0-0-0-(0)-0-0-0-|-3-3-3---------|---------------|-3-3-3-3-(3)-3-3-3-|


                         2.
        C/G               G   C/G       C/G
  +E  E E E +E  E E E     E E E E +E  E E E
|-(3)-3-3-3-(3)-3-3-3--||-3-3-3-3-(3)-3-3-3-|
|-(0)-0-1-0-(0)-0-0-0-o||-0-0-1-0-(0)-0-1-0-|
|-(0)-0-0-0-(0)-0-0-0--||-0-0-0-0-(0)-0-0-0-|
|-(0)-0-2-0-(0)-0-0-0--||-0-0-2-0-(0)-0-2-0-|
|---------------------o||-2-----------------|
|-(3)-3-3-3-(3)-3-3-3--||-3-3-3-3-(3)-3-3-3-|


        C/G             Em
  +E  E E E +E  E E E   E E E E +E  E E E
|-(3)-3-3-3-(3)-3-3-3-|-0-0-0-0-(0)-0-0-0-|
|-(0)-0-1-0-(0)-0-0-0-|-0-0-0-0-(0)-0-0-0-|
|-(0)-0-0-0-(0)-0-0-0-|-0-0-0-0-(0)-0-0-0-|
|-(0)-0-2-0-(0)-0-0-0-|-2-2-0-2-(2)-2-0-0-|
|---------------------|-2-2-0-2-(2)-2-0-0-|
|-(3)-3-3-3-(3)-3-3-3-|-0-0-0-0-(0)-0-0-0-|


                       Outro
                        G   C/G       C/G         C/G
  E E E E +E  E E E     E E E E +E  E E E   +E  E E E +E  E E E
|-0-0-0-0-(0)-0-0-0-||--3-3-3-3-(3)-3-3-3-|-(3)-3-3-3-(3)-3-3-3-|
|-0-0-0-0-(0)-0-0-0-||o-0-0-1-0-(0)-0-1-0-|-(0)-0-1-0-(0)-0-0-0-|
|-0-0-0-0-(0)-0-0-0-||--0-0-0-0-(0)-0-0-0-|-(0)-0-0-0-(0)-0-0-0-|
|-2-2-0-2-(2)-2-0-0-||--0-0-2-0-(0)-0-2-0-|-(0)-0-2-0-(0)-0-0-0-|
|-2-2-0-2-(2)-2-0-0-||o-2-----------------|---------------------|
|-0-0-0-0-(0)-0-0-0-||--3-3-3-3-(3)-3-3-3-|-(3)-3-3-3-(3)-3-3-3-|


                     1.,2.,3.,4.           5.
  Em
  E E E E +E  E E E   E E E E +E  E E E  5x W          +W
|-0-0-0-0-(0)-0-0-0-|-0-0-0-0-(0)-0-0-0--||-0--------|-(0)----*|
|-0-0-0-0-(0)-0-0-0-|-0-0-0-0-(0)-0-0-0-o||-0--------|-(0)----*|
|-0-0-0-0-(0)-0-0-0-|-0-0-0-0-(0)-0-0-0--||-0--------|-(0)----*|
|-2-2-0-2-(2)-2-0-0-|-2-2-0-2-(2)-2-0-0--||-2--------|-(2)----*|
|-2-2-0-2-(2)-2-0-0-|-2-2-0-2-(2)-2-0-0-o||-2--------|-(2)----*|
|-0-0-0-0-(0)-0-0-0-|-0-0-0-0-(0)-0-0-0--||-0--------|-(0)----*|            
Submit corrections


        Slip Slidin Away lessons Hard to play? Try these video lessons and learn fast Slip Slidin Away lessons
        
↑ Back to top | Tablatures and chords for acoustic guitar and electric guitar, ukulele, drums are parodies/interpretations of the original songs. You may use it for private study, scholarship, research or language learning purposes only