Home » P » Paul Simon »

Paul Simon - Mother And Child Reunion Bass

Artists:  A B C D E F G H I J K L M N O P Q R S T U V W X Y Z # 

Mother And Child Reunion Bass

(ver. 1) Click to play this song!
Paul Simon
Gtr I (E A D G) - 'Jackie Jackson - Bass'

   [Intro]
    Q=120
    4/4
    Gtr I
     E E E E Q  Q    E E E E Q  Q    E E E E Q  Q    E E E E Q  Q
G||----------------|---------------|---------------|-----------------||
D||o-----0-2-------|-----0-2-------|-----4---------|-----4----------o||
A||o-0-4-----0-----|-0-4-----0-----|---4---4-------|---4---4--------o||
E||----------------|---------------|-2-------2-----|-2-------2-------||

   [Chorus]
    Segno $
     E E E E Q  Q    E E E E Q  Q    E E E E Q  Q    E E E E Q  Q
G||----------------|---------------|---------------|---------------|
D||o-0-4-0---2-----|-----0-2-------|-0-4-0---2-----|-----0-2-------|
A||o-------2-------|-0-4-----0-----|-------2-------|-0-4-----0-----|
E||----------------|---------------|---------------|---------------|

   E E E E Q  Q    E E E E Q  Q    E E E E Q  Q
G|---------------|---------------|---------------|
D|-0-4-0---2-----|---------------|---0---2-------|
A|-------2-------|-0-4-0---------|-2---2---0-----|
E|---------------|-------0-2-----|---------------|

         To Coda
   E E E E Q  Q    E E E E Q  Q
G|---------------|-----------------||
D|-2-0---2-2-----|-2-0---2-2-------||
A|-----2---------|-----2-----------||
E|---------------|-----------------||

  [1st & 2nd Verses]
   E E E E Q  Q    E E E E Q  Q    E E E E Q  Q    E E E E Q  Q
G|---------------|---------------|---------------|----------------|
D|-----4---------|-----4---------|-2-0---2-2-----|-2-0---2-2------|
A|---4---4-------|---4---4-------|-----2---------|-----2----------|
E|-2-------2-----|-2-------2-----|---------------|----------------|

   E E E E Q  Q    E E E E Q  Q    E E E E Q  Q    E E E E Q  Q
G|---------------|---------------|---------------|----------------|
D|-----4---------|-----4---------|-2-0---2-2-----|-2-0---2-2------|
A|---4---4-------|---4---4-------|-----2---------|-----2----------|
E|-2-------2-----|-2-------2-----|---------------|----------------|

   E E E E Q  Q    E E E E Q  Q    E E E E Q  Q
G|---------------|---------------|---------------|
D|-----4---------|-----4---------|-0-----0-0-----|
A|---4---4-------|---4---4-------|---2-0---------|
E|-2-------2-----|-2-------2-----|---------------|

                                  1.
   E E E E Q  Q    E E E E Q  Q    E E E E Q  Q
G|---------------|---------------|----------------||
D|-0-----0-0-----|-2-0---2-2-----|-2-0---2-2-----o||
A|---2-0---------|-----2---------|-----2---------o||
E|---------------|---------------|----------------||

                                    [Out-Chorus]
   2.
   D.S. al Coda &
   E E E E Q  Q     E E E E Q  Q      E E E E Q  Q    E E E E Q  Q
G|---------------||---------------||----------------|----------------|
D|-2-0---2-2-----||-2-0---2-2-----||o-0-4-0---2-----|-----0-2--------|
A|-----2---------||-----2---------||o-------2-------|-0-4-----0------|
E|---------------||---------------||----------------|----------------|

   E E E E Q  Q    E E E E Q  Q    E E E E Q  Q    E E E E Q  Q
G|---------------|---------------|---------------|----------------|
D|-0-4-0---2-----|-----0-2-------|-0-4-0---2-----|----------------|
A|-------2-------|-0-4-----0-----|-------2-------|-0-4-0----------|
E|---------------|---------------|---------------|-------0-2------|

   E E E E Q  Q    E E E E Q  Q    E E E E Q  Q   3x
G|---------------|---------------|----------------||
D|---0---2-------|-2-0---2-2-----|-2-0---2-2-----o||
A|-2---2---0-----|-----2---------|-----2---------o||
E|---------------|---------------|----------------||            
Submit corrections

↑ Back to top | Tablatures and chords for acoustic guitar and electric guitar, ukulele, drums are parodies/interpretations of the original songs. You may use it for private study, scholarship, research or language learning purposes only