Home » P » Paul Simon »

Paul Simon - Me And Julio Down By The Schoolyard Chords

Artists:  A B C D E F G H I J K L M N O P Q R S T U V W X Y Z # 

Me And Julio Down By The Schoolyard Chords

(ver. 1) Click to play this song!
Paul Simon
INTRO
1st guitar
  A       D6       A     E            A       D        A     E
  1 + 2 + 3 + 4 +  1 + 2 + 3 + 4 +  1 + 2 + 3 + 4 +  1 + 2 + 3 + 4 +  
e|5-5-5---7-7-7---|5-5---4-4-4-4---|5-5-5---7-7-7---|5-5---4-4-4-4---|
B|5-5-5---7-7-7---|5-5---5-5-5-5---|5-5-5---7-7-7---|5-5---5-5-5-5---|
G|6-6-6---7-7-7---|6-6---4-4-4-4---|6-6-6---7-7-7---|6-6---4-4-4-4---|
D|----------------|----------------|----------------|----------------|
A|----------------|----------------|----------------|----------------|
E|----------------|----------------|----------------|----------------|
2nd guitar
  1 + 2 + 3 + 4 +  1 + 2 + 3 + 4 +  1 + 2 + 3 + 4 +  1 + 2 + 3 + 4 +  
e|----------------|----------------|----------------|----------------|
B|----------------|----------------|----------------|----------------|
G|----------------|----------------|----------------|----------------|
D|----------------|----------------|----------------|----------------|
A|----------------|----------------|----------------|----------------|
E|----------------|----------------|----------------|----------------|

1st guitar
  A       D6       A     E            A       D        A     E
  1 + 2 + 3 + 4 +  1 + 2 + 3 + 4 +  1 + 2 + 3 + 4 +  1 + 2 + 3 + 4 +  
e|5-5-5---7-7-7---|5-5---4-4-4-4---|5-5-5---7-7-7---|5-5---4-4-4-4---|
B|5-5-5---7-7-7---|5-5---5-5-5-5---|5-5-5---7-7-7---|5-5---5-5-5-5---|
G|6-6-6---7-7-7---|6-6---4-4-4-4---|6-6-6---7-7-7---|6-6---4-4-4-4---|
D|----------------|----------------|----------------|----------------|
A|----------------|----------------|----------------|----------------|
E|----------------|----------------|----------------|----------------|
2nd guitar
  1 + 2 + 3 + 4 +  1 + 2 + 3 + 4 +  1 + 2 + 3 + 4 +  1 + 2 + 3 + 4 +  
e|5-5-5---5-5-5---|5-5---4-4-4-4---|5-5-5---5-5-5---|5-5---4-4-4-4---|
B|5-5-5---7-7-7---|5-5---5-5-5-5---|5-5-5---7-7-7---|5-5---5-5-5-5---|
G|6-6-6---7-7-7---|6-6---4-4-4-4---|6-6-6---7-7-7---|6-6---4-4-4-4---|
D|----------------|----------------|----------------|----------------|
A|----------------|----------------|----------------|----------------|
E|----------------|----------------|----------------|----------------|

1st guitar
  A       D        A     E            A       D        A     E
  1 + 2 + 3 + 4 +  1 + 2 + 3 + 4 +  1 + 2 + 3 + 4 +  1 + 2 + 3 + 4 +  
e|----------------|----------------|----------------|----------------|
B|5-5-5---7-7-7---|5-5---5-5-5-5---|5-5-5---7-7-7---|5-5---5-5-5-5---|
G|6-6-6---7-7-7---|6-6---4-4-4-4---|6-6-6---7-7-7---|6-6---4-4-4-4---|
D|7-7-7---7-7-7---|7-7---6-6-6-6---|7-7-7---7-7-7---|7-7---6-6-6-6---|
A|----------------|----------------|----------------|----------------|
E|----------------|----------------|----------------|----------------|
2nd guitar
  1 + 2 + 3 + 4 +  1 + 2 + 3 + 4 +  1 + 2 + 3 + 4 +  1 + 2 + 3 + 4 +  
e|5-5-5---5-5-5---|5-5---4-4-4-4---|5-5-5---5-5-5---|5-5---4-4-4-4---|
B|5-5-5---7-7-7---|5-5---5-5-5-5---|5-5-5---7-7-7---|5-5---5-5-5-5---|
G|6-6-6---7-7-7---|6-6---4-4-4-4---|6-6-6---7-7-7---|6-6---4-4-4-4---|
D|----------------|----------------|----------------|----------------|
A|----------------|----------------|----------------|----------------|
E|----------------|----------------|----------------|----------------|

1st guitar
  A       D        A     E
  1 + 2 + 3 + 4 +  1 + 2 + 3 + 4 +  
e|----------------|----------------|
B|5-5-5---7-7-7---|5-5---5-5-5-5---|
G|6-6-6---7-7-7---|6-6---4-4-4-4---|
D|7-7-7---7-7-7---|7-7---6-6-6-6---|
A|----------------|----------------|
E|----------------|----------------|
2nd guitar
  1 + 2 + 3 + 4 +  1 + 2 + 3 + 4 +
e|5-5-5---5-5-5---|5-5---4-4-4-4---|
B|5-5-5---7-7-7---|5-5---5-5-5-5---|
G|6-6-6---7-7-7---|6-6---4-4-4-4---|
D|----------------|----------------|
A|----------------|----------------|
E|----------------|----------------|

---------------------------------------------------------------------------


[Intro] 
| A D6 | A E | A D6 | A E |
| A D6 | A E | A D6 | A E |
| A D | A E | A D | A E |
| A D | A E | 


[Verse]

A
Mama Pajama rolled out of bed
                          D
And she ran to the police station
         E
When the papa found out he began to shout
                          A
And he started the investigation

                 E                      A
It's against the law, it was against the law
              E                       A
What the mama saw, it was against the law

         A
Well the mama looks down and she spit on the ground
                        D
Every time my name gets mentioned
        E
And the papa says "Oy, if I get that boy
                                    A
I'm gonna stick him in the house of detention"


[Chorus]

                D                 A
Well, I'm on my way, I don't know where I'm going
          D                  A          B          E
I'm on my way, I'm takin' my time but I don't know where
           D                 A
Goodbye to Rosie, the Queen of Corona
         A       G     D           E     A    D A E 
See you, me, and Julio down by the schoolyard
         A       G     D           E     A    D A E 
See you, me, and Julio down by the schoolyard


[SOLO] (whistling)

| D | % | A | % | 
| D | % | A B | E | 
| D | % | A | % | 
| A G | D E | A D | A E | 
                   2/4  1 + 2 + 3 + 4 +
| A G | D E | A D | A | E       E
                              (break)

[Verse]

           A
Woah, in a couple of days they come and take me away
                            D
But the press let the story leak
             E
And when the radical priest come to get me released
                           A
We was all on the cover of Newsweek


[Chorus]

              D                 A
And I'm on my way, I don't know where I'm going
          D                  A          B          E
I'm on my way, I'm takin' my time but I don't know where
           D                 A
Goodbye to Rosie, the Queen of Corona
         A       G     D           E     A    D A E 
See you, me, and Julio down by the schoolyard
         A       G     D           E     A    D A E 
See you, me, and Julio down by the schoolyard
         A       G     D           E     A    D A E 
See you, me, and Julio down by the schoolyard


[Outro]

| A D | A E | A D | A E |
| A D | A E | A D | A E |

(repeat and fade)

            
Submit corrections

↑ Back to top | Tablatures and chords for acoustic guitar and electric guitar, ukulele, drums are parodies/interpretations of the original songs. You may use it for private study, scholarship, research or language learning purposes only