» » »

Paul Simon - Long Long Day Tabs

Artists:  A B C D E F G H I J K L M N O P Q R S T U V W X Y Z # 

Long Long Day Tabs

(ver. 1) Click to play this song!
Paul Simon
 Rating:
4.3/5 (28 votes)

 Long Long Day  lessons Tabs too difficult? Try these video lessons and learn fast
 
                             [Verse 1]
eb|----------|-------------|---------------|---2----------|------------------------|
Bb|----------|-------------|---5----3----3-|---2------4---|-----------0------------|
Gb|--1--2--4-|-6---6-6---6-|---4----4----4-|----------4---|-----1--1h2-1---1--2--4-|
Db|----------|-------------|---------------|--------------|---2----2---------------|
Ab|----------|-------------|-4---4--4--4---|--------2---2-|------------------------|
Eb|-0---2--4-|-5--5--4--4--|---------------|-2---2--------|-0-------------0---2--4-|
              
  
eb|-------------|--------------|----------------|---2---5-4-2-|----------------|
Bb|-------------|--------------|-4----4--3----3-|---2---5-4-2-|---4------4-----|
Gb|-6---6-6---6-|-----9----6---|-4----4--4----4-|-------------|---4------5-----|
Db|-------------|---6----------|----------------|-------------|----------------|
Ab|-------------|--------------|-4--4----4--4---|-------------|-2---2--3---3---|
Eb|-5--5--6--6--|-7------4---4-|----------------|-0---0-------|----------------|

                              [Chorus]
eb|-------4-----|-------4-----|-------4-----|-------------|-------------|-----------------|
Bb|-----5---5---|-------------|-----5---5---|-------3-----|-----3-----3-|-------2h3h2-----|
Gb|---6-------6-|-----5---5---|---6-------6-|-----4---4---|---3-----3---|-----2-------2---|
Db|-------------|---6-------6-|-------------|---4-------4-|-------3-----|---2-----------2-|
Ab|-4-----------|-------------|-4-----------|-------------|-1-----------|-0---------------|
Eb|-------------|-4-----------|-------------|-3-----------|-------------|-----------------|


eb|-------0-----|----------|
Bb|---------0---|----------|
Gb|-----1-----1-|-----1----|
Db|---2---------|---2------|
Ab|-------------|----------|
Eb|-0-----------|-0--------|               

             [Verse 2]
eb|----------|-------------|---------------|---2----------|------------------------|
Bb|----------|-------------|---5----3----3-|---2------4---|-----------0------------|
Gb|--1--2--4-|-6---6-6---6-|---4----4----4-|----------4---|-----1--1h2-1---1--2--4-|
Db|----------|-------------|---------------|--------------|---2----2---------------|
Ab|----------|-------------|-4---4--4--4---|--------2---2-|------------------------|
Eb|-0---2--4-|-5--5--4--4--|---------------|-2---2--------|-0-------------0---2--4-|


eb|-------------|--------------|----------------|---2---5-4-2-|----------------|
Bb|-------------|--------------|-4----4--3----3-|---2---5-4-2-|---4------4-----|
Gb|-6---6-6---6-|-----9----6---|-4----4--4----4-|-------------|---4------5-----|
Db|-------------|---6----------|----------------|-------------|----------------|
Ab|-------------|--------------|-4--4----4--4---|-------------|-2---2--3---3---|
Eb|-5--5--6--6--|-7------4---4-|----------------|-0---0-------|----------------|

                              [Chorus]
eb|-------4-----|-------4-----|-------4-----|-------------|-------------|-----------------|
Bb|-----5---5---|-------------|-----5---5---|-------3-----|-----3-----3-|-------2h3h2-----|
Gb|---6-------6-|-----5---5---|---6-------6-|-----4---4---|---3-----3---|-----2-------2---|
Db|-------------|---6-------6-|-------------|---4-------4-|-------3-----|---2-----------2-|
Ab|-4-----------|-------------|-4-----------|-------------|-1-----------|-0---------------|
Eb|-------------|-4-----------|-------------|-3-----------|-------------|-----------------|

                      [Bridge](C)           (G)                 (C)
eb|-------0------------|-------------------|-3--3-3-3-3--3-3-3-|-------------------|
Bb|---------0----------|----5-5-5-5--5-5-5-|-3--3-3-3-3--3-3-3-|-5--5-5-5-5--5-5-5-|
Gb|-----1-----1------0-|----5-5-5-5--5-5-5-|-4--4-4-4-4--4-4-4-|-5--5-5-5-5--5-5-5-|
Db|---2------------2---|----5-5-5-5--5-5-5-|-5--5-5-5-5--5-5-5-|-5--5-5-5-5--5-5-5-|
Ab|--------------------|-3--3-3-3-3--3-3-3-|-5--5-5-5-5--5-5-5-|-3--3-3-3-3--3-3-3-|
Eb|-0------------0-----|-------------------|-3--3-3-3-3--3-3-3-|-------------------|

                    (C)              (G)         (G)(F#)(F)              (B7sus2/F#)
eb|-3-----------|-------------------|-3--3-3-3-3--3--2-|-1--1-1-1-1--1-1-|-2--2-2-2-2--2-2-|
Bb|-3-----------|----5-5-5-5--5-5-5-|-3--3-3-3-3--3--2-|-1--1-1-1-1--1-1-|-2--2-2-2-2--2-2-|
Gb|-4-----------|----5-5-5-5--5-5-5-|-4--4-4-4-4--4--3-|-2--2-2-2-2--2-2-|-2--2-2-2-2--2-2-|
Db|-5-----------|----5-5-5-5--5-5-5-|-5--5-5-5-5--5--4-|-3--3-3-3-3--3-3-|-4--4-4-4-4--4-4-|
Ab|-5-------0-2-|-3--3-3-3-3--3-3-3-|-5--5-5-5-5--5--4-|-3--3-3-3-3--3-3-|-2--2-2-2-2--2-2-|
Eb|-3--0-h3-----|-------------------|-3--3-3-3-3--3--2-|-1--1-1-1-1--1-1-|-2--2-2-2-2--2-2-|

  [Verse 3}
eb|----------|-------------|---------------|---2----------|------------------------|
Bb|----------|-------------|---5----3----3-|---2------4---|-----------0------------|
Gb|--1--2--4-|-6---6-6---6-|---4----4----4-|----------4---|-----1--1h2-1---1--2--4-|
Db|----------|-------------|---------------|--------------|---2----2---------------|
Ab|----------|-------------|-4---4--4--4---|--------2---2-|------------------------|
Eb|-0---2--4-|-5--5--4--4--|---------------|-2---2--------|-0-------------0---2--4-|


eb|-------------|--------------|----------------|---2---5-4-2-|----------------|
Bb|-------------|--------------|-4----4--3----3-|---2---5-4-2-|---4------4-----|
Gb|-6---6-6---6-|-----9----6---|-4----4--4----4-|-------------|---4------5-----|
Db|-------------|---6----------|----------------|-------------|----------------|
Ab|-------------|--------------|-4--4----4--4---|-------------|-2---2--3---3---|
Eb|-5--5--6--6--|-7------4---4-|----------------|-0---0-------|----------------|


eb|--------------|-9-------|---------------|---------3---------------3-------|---------0-------|-----|
Bb|---5------7---|-9-------|----7------5---|-------5---5-------5---5---5---5-|-------0---0-----|-----|
Gb|---6------7---|-9-------|----5------4---|-----4-------4---4---4-------4---|-----1-------1---|-----|
Db|--------------|---------|----7------6---|---5-----------5-----------------|---2-----------2-|-2---|
Ab|-4---4--5---5-|-7-------|--5---5--4---4-|-3-------------------------------|-----------------|-2---|
Eb|--------------|---------|---------------|---------------------------------|-0---------------|-0---|
                            
Submit corrections


        Long Long Day  lessons Hard to play? Try these video lessons and learn fast Long Long Day  lessons
        
↑ Back to top | Tablatures and chords for acoustic guitar and electric guitar, ukulele, drums are parodies/interpretations of the original songs. You may use it for private study, scholarship, research or language learning purposes only