» » »

Paul Simon - Kodachrome Tabs

Artists:  A B C D E F G H I J K L M N O P Q R S T U V W X Y Z # 

Kodachrome Tabs

(ver. 1) Click to play this song!
Paul Simon
 Rating:
3.9/5 (23 votes)

 Kodachrome  lessons Tabs too difficult? Try these video lessons and learn fast
 
                 Intro
  Q=135
  D                                G/B   G6
 4/4
  Gtr I (Ac. Gtr. w/ capo 2nd fret)
  E Q   E  E  Q  E   E Q   E  E  E E E   E E E E E E E E   E E E E E E E E
|---2---2-----2--2-|---2---2-----------|-----------0-----|---0-------------|
|---3---3-----3--3-|---3---3-----3---0-|---0---0---0---0-|---0---0---0---0-|
|---2---2-----2--2-|---2---2---------0-|---0---0---0---0-|---0---0---0---0-|
|-0--------0-------|-0--------0--------|-------0-0-------|---------0-0---0-|
|------------------|---------------2---|-----1s2-----1s2-|-----1s2---------|
|------------------|-------------------|-3---------------|-3-----------2---|
|
| Gtr II (Ac. Gtr. w/ capo 2nd fret)
| E E E E +H         E E E E +H          E E E E Q   E E   E E E E E E E E
|---2---5-(5)------|---2---5-(5)-------|-----------------|-----------------|
|------------------|-------------------|-----------------|-----------------|
|-----2------------|-----2-------------|-----------------|-----------------|
|-0----------------|-0-----------------|---------0-------|---------0-------|
|------------------|-------------------|-----1-2-----1-2-|-----1-2---------|
|------------------|-------------------|-3-3-------------|-3-3-------3-2-1-|


  Em                A7               D                   Em7       A7  D7
  E E E E E E E E   E E E E Q  E E   E E E E  E  E E E    E  E E E E E E E
|-------0---0-----|---0---0--------|---2---2-----2-----|--------------------||
|---0---0---0---0-|---2---2--------|---3---3-----3---3-|-----0---0---2---1--||
|---0-------0---0-|---0---0------0-|---2---2-----2---2-|-----0---0---0---2--||
|-----2-----------|--------------2-|-0---0----0----0---|--0--2-2------------||
|-----------------|-0---0---0--0---|-------------------|-----------0---0----||
|-0-------0---0---|----------------|-------------------|--------------------||
|
| W                 W                E E E E +H          +W
|-----------------|----------------|---2---5-(5)-------|-(5)----------------||
|-----------------|----------------|-------------------|--------------------||
|-----------------|----------------|-----2-------------|--------------------||
|-----------------|----------------|-0-----------------|--------------------||
|-----------------|----------------|-------------------|--------------------||
|-0---------------|----------------|-------------------|--------------------||


 1st Verse
  D7                          D9        G
  E E E S S E E E E   E E E E E E E E   E E E E E E E E   E E E E E E E E
|-------------------|-----------0-----|-----------0-----|---0-------------|
|---1---------1---1-|---1---1---1---1-|---0---0---0---0-|---0---0---0---0-|
|---2---------2---2-|---2---2-------2-|---0---0---0---0-|---0---0---0---0-|
|-0-----0-----------|-0-------0---0-0-|-------0-0-------|---------0-0---0-|
|-----0---0-0---0---|-----0-----------|-----1s2-----1s2-|-----1s2---------|
|-------------------|-----------------|-3---------------|-3---------3-2---|
|
| W                   W                 E E E E Q   E E   E E E E E E E E
|-------------------|-----------------|-----------------|-----------------|
|-------------------|-----------------|-----------------|-----------------|
|-------------------|-----------------|-----------------|-----------------|
|-------------------|-----------------|---------0-------|---------0-------|
|-------------------|-----------------|-----1-2-----1-2-|-----1-2---------|
|-------------------|-----------------|-3-3-------------|-3-3-------3-2-1-|


  Em                A7            D               Em      A7
                   3/4           4/4
  E E E E E E E E   E E E E E E   Q  E E Q  E E   E E E E E E E E
|-----------0-----|-------------|----2--------0-|---0--------------|
|---0---0---0---0-|---2---2---2-|----3--------0-|---0---0---2------|
|---0---0---0---0-|---0---0---0-|----2--------0-|---0---0---0------|
|---2-2-----------|---2---2-----|-0----0----0---|-2---2------------|
|-----------------|-0---0---0---|--------0------|---------0---0-0--|
|-0-------0---0---|-------------|---------------|------------------|
|
| W                 W             W               W
|-----------------|-------------|---------------|------------------|
|-----------------|-------------|---------------|------------------|
|-----------------|-------------|---------------|------------------|
|-----------------|-------------|---------------|------------------|
|-----------------|-------------|---------------|------------------|
|-0---------------|-------------|---------------|------------------|


  D             DmajD7                G
  E E E E E E E E   E E E E E E E E   E E E E E E E E   E E E E E E E E
|---2-------------|-----------------|-----------0-----|------------------|
|---3---3-------2-|---1---1---1---1-|---0---0---0---0-|---0---0---0---0--|
|---2---2---2---2-|---2-------2---2-|---0---0---0---0-|---0---0---0---0--|
|-0-------0-------|-0-------0---0---|-------0-0-------|---------0-0---0--|
|-----0-------0---|-----0-----------|-----1s2-----1s2-|-----1s2----------|
|-----------------|-----------------|-3---------------|-3---------3-2----|
|
| W                 W                 E E E E Q   E E   E E E E E E E E
|-----------------|-----------------|-----------------|------------------|
|-----------------|-----------------|-----------------|------------------|
|-----------------|-----------------|-----------------|------------------|
|-----------------|-----------------|---------0-------|---------0--------|
|-----------------|-----------------|-----1-2-----1-2-|-----1-2----------|
|-----------------|-----------------|-3-3-------------|-3-3-------3-2-1--|


                                                        Chorus
  Em                A7                D       D7         G       B7
  E E E E E E E E   E E E E E E E E   E E E E E E E E    E E E E E E E E
|-----------0-----|-----------------|---2-------2---2-||---3---3---2---2--|
|---0---0---0---0-|---2---2---2-----|---3---3---1---1-||---0---0---0---0--|
|---0---0---0---0-|---0---0---0---0-|---2---2---2---2-||---0---0---2---2--|
|---2-2-----------|---------------0-|-0-------0-------||-----0---2---1----|
|-----------------|-0---0---0---0---|-----0-------0---||------------------|
|-0-------0---0---|-----------------|-----------------||-3----------------|
|
|                                                        Gtr III (El. Gtr.)
| W                 W                 W                  H       H
|-----------------|-----------------|-----------------||------------------|
|-----------------|-----------------|-----------------||------------------|
|-----------------|-----------------|-----------------||------------------|
|-----------------|-----------------|-----------------||------------------|
|-----------------|-----------------|-----------------||-0-------4--------|
|-0---------------|-----------------|-----------------||------------------|


  E                  Am                 D7                G
  E  E E E E E Q     E  E E E E E E E   E  E E E Q  E E   E E E E E E E E
|----0---0---0-----|----0---0---0-----|----2---2--------|---3---3---------|
|----0---0---0-----|----1---1---1-----|----1---1--------|---0---0---0---0-|
|----1---1---------|------2---------2-|----2---2--------|---0---0---0---0-|
|------2-------2---|------------------|-0--------0------|-----0-----------|
|------------------|-0--------0---0---|------0----------|-------------2---|
|-0--------0-------|------------------|-------------0h2-|-3-------3-------|
|
| H.           E E   H.           Q     H.          E E   H       Q   Q
|------------------|------------------|-----------------|-----------------|
|------------------|------------------|-----------------|-----------------|
|------------------|------------------|-----------------|-----------------|
|------------------|------------------|-----------------|-----------------|
|------------------|--------------2S==|=7---------------|---------7-------|
|-2------------2s6-|-7----------------|-------------2s4-|-5-------5---5---|


  C                   A7
  E E E E E E E S S   E  E E E E E       E   E
|-------------------|---------------------------|
|---1-----------1p0-|--------0---2-----------0--|
|---0-0-0---0-0-----|----0---0---0-----------0--|
|-----2-------------|---------------------------|
|-3-------3---------|-0--------0----------------|
|-------------------|------0-------------0------|
|
| H       E E E S S   H.           a    +E  +E
|-------------------|---------------------------|
|-------------------|---------------------------|
|-------------------|---------------------------|
|-7-------7-6-5-----|-4-------------------------|
|-5-------5-4-3-1s2-|-2-------------------------|
|-------------------|--------------2b3==(2)r(2)-|


  D7                G         B7
                   3/4
  E E E E E E E E   E E  E    E  E  E
|---2---2---2-----|--------------------|
|---1---1---1---0-|--------------------|
|---2---2---2---0-|---0----------2-----|
|-0-------0-------|------0----------4--|
|-----0-------0---|-----------2--------|
|-----------------|-3------------------|
|
| W                 Q   +E  a E +Q
|-----------------|--------------------|
|-----------------|--------------------|
|-----------------|--------------------|
|-----------------|--------------------|
|-----------------|-0---(0)-2s4-(4)----|
|-0---------------|--------------------|


  E                Am                 D                  G
 4/4
  E E E E +H       E  E E E E E E E   E  E E E E E E E   E E E E E E E E
|-------0-(0)----|----0-------0-----|------------------|---3---3---------|
|-----0----------|----1---1---1---0-|----3---3---3-----|---0---0---0-----|
|---1------------|--------2-------0-|----2---2---2---2-|---0---0---0---0-|
|-2--------------|------2-----------|-0--------0-----0-|-----0-----------|
|----------------|-0--------0---0---|------0-------0---|-------------2---|
|----------------|------------------|------------------|-3-------3-------|
|
| W                H.           Q     H.           E E   Q   Q   Q   Q
|----------------|------------------|------------------|-----------------|
|----------------|------------------|------------------|-----------------|
|----------------|------------------|------------------|-----------------|
|----------------|------------------|------------------|-----------------|
|----------------|-2------------2S==|=7----------------|-----7---7---7---|
|-2--------------|------------------|--------------2s4-|-5-------5-------|


  C                 A7
  E E E E E E E E   S  E. E E E E       E   E
|-----------------|-------------------------0--|
|---2-------------|-------2---2-------------0--|
|---0-------0-----|-------0---0-0--------------|
|-----2-1-2---2---|----2----2------------------|
|-3-------------3-|-0-------------------0------|
|-----------------|----------------------------|
|
| Q   e E E E E E   H.            a    +E  +E
|-----------------|----------------------------|
|-----------------|----------------------------|
|-----------------|----------------------------|
|-7---7---7-6-----|----------------------------|
|-5---5---5-4-----|-9--------------------------|
|-------------3s6-|-7-------------2b3==(2)r(2)-|


  D7                G
  E E E E E E E E   E  E E E E E  E  E
|---2---2---------|--------3------------|
|---1---1---1---0-|--------0---0-----0--|
|-------2---2---0-|----0-0-0---0--0--0--|
|-0-------0-------|------0--------0-----|
|-----0-------0---|---------------------|
|-----------------|-3--------3----------|
|
| Q   Q   Q   Q     H.           +E  E
|-----------------|---------------------|
|-----0-----------|---------------------|
|-----------------|---------------------|
|---------2-------|---------------------|
|-----------------|-0------------(0)-3s=|
|-0---------------|---------------------|


                                                       2nd Verse
  Bm                  Em                  A7            D5        DmajD7
  E E E E  E  E E E   E E E E  E  E E E   Q  H.         E E E E E E E E
|-------2-----------|---0---------------|----0-------||------------------|
|-------3-----3-0---|---0---0-----0---0-|----2-------||---3---3---2---1--|
|-------4-----4-----|-------0-----0---0-|----0-------||---2---2---2---2--|
|---4-------------4-|-----2-------------|----2-------||-0---0---0--------|
|-2---2----2--------|-------------------|-0----------||-------------0----|
|-------------------|-0--------0----0---|------------||------------------|
|
| H       +Q.     E   Q   Q   +H          W             W
|-------------------|-------------------|------------||------------------|
|-------------------|-------------------|------------||------------------|
|-------------------|-------------------|------------||------------------|
|-------------------|-------------------|------------||------------------|
|-4-------(4)-------|-------------------|------------||------------------|
|-----------------1s|=2---2---(2)-------|------------||------------------|


  D9                G                                   Em
  E E E E E E E E   E E E E E E E E   E E E E E E E E   E E E E E E E E
|-----------0-----|-----------0-----|---3-------------|------------------|
|---1---1---1---1-|---0---0---0---0-|---0---0---0---0-|---0---0---0---0--|
|---2---2-------2-|---0---0---0---0-|---0---0---0---0-|---0---0---0---0--|
|-0-------0---0---|-------0-0-------|---------0-0---0-|---2-2------------|
|-----0-----------|-----1s2-----1s2-|-----1s2---------|------------------|
|-----------------|-3---------------|-3---------3-2-1-|-0-------0---0----|
|
| Gtr II
| W                 E E E E Q   E E   E E E E E E E E   W
|-----------------|-----------------|-----------------|------------------|
|-----------------|-----------------|-----------------|------------------|
|-----------------|-----------------|-----------------|------------------|
|-----------------|---------0-------|---------0-------|------------------|
|-----------------|-----1-2-----1-2-|-----1-2---------|------------------|
|-----------------|-3-3-------------|-3-3-------3-2-1-|-0----------------|


  A7                D                   Em        A7        D         Dmaj7
  E E E E E E E E   E E E E  E  E E E    E  E E E E E E E   E E E E E E E E
|---0---0---0-----|---2---------------|-------------0-----|------------------|
|---2---2---2-----|---3---3-----3---3-|-----0---0---2---2-|---3---3---2---2--|
|---0---0---0-----|---2---2-----2---2-|-----0---0---0---0-|---2---2---2---2--|
|---------------2-|-0--------0----0---|--0--2-2---------2-|-0-----0-0-----0--|
|-0-------0---0---|-----0-------------|-----------0---0---|-----0-------0----|
|-----0-----------|-------------------|-------------------|------------------|
|
| W                 E E E E +H          +W                  W
|-----------------|---2---5-(5)-------|-(5)---------------|------------------|
|-----------------|-------------------|-------------------|------------------|
|-----------------|-----2-------------|-------------------|------------------|
|-----------------|-0-----------------|-------------------|------------------|
|-----------------|-------------------|-------------------|------------------|
|-----------------|-------------------|-------------------|------------------|


  D7                G                                   Em
  E E E E E E E E   E E E E E E E E   E E E E E E E E   E E E E E E E E
|-----------------|-----------0-----|---0-------------|------------------|
|---1---1---1---1-|---0---0---0---0-|---0---0---0---0-|---0---0---0---0--|
|---2---2---2---2-|---0---0---0---0-|---0---0---0---0-|---0---0---0---0--|
|-0-------0---0---|-------0-0-------|---------0-0---0-|---2-2------------|
|-----0-----------|-----1s2-----1s2-|-----1s2---------|------------------|
|-----------------|-3---------------|-3---------3-2---|-0-------0---0----|
|
| W                 E E E E Q   E E   E E E E E E E E   W
|-----------------|-----------------|-----------------|------------------|
|-----------------|-----------------|-----------------|------------------|
|-----------------|-----------------|-----------------|------------------|
|-----------------|---------0-------|---------0-------|------------------|
|-----------------|-----1-2-----1-2-|-----1-2---------|------------------|
|-----------------|-3-3-------------|-3-3-------3-2-1-|-0----------------|


                               Chorus
  A7            D     D7        G       B7        E
 3/4           4/4
  E E E E E E   Q  Q  E E Q     E E E E E E E E   E  E E E E E Q
|-------------|----2----2----||---3---3---2---2-|----0---0---0-----|
|-------2---2-|----3----1----||---0---0---0---0-|----0---0---0-----|
|-------0---0-|----2----2----||---0---0---2---2-|----1---1---------|
|---2---2---2-|-0-----0---0--||-----0---2---1---|------2-------2---|
|-0---0---0---|--------------||-----------------|------------------|
|-------------|--------------||-3---------------|-0--------0-------|
|
| Gtr III
| W             W               H       H         H.           E E
|-------------|--------------||-----------------|------------------|
|-------------|--------------||-----------------|------------------|
|-------------|--------------||-----------------|------------------|
|-------------|--------------||-----------------|------------------|
|-------------|--------------||-0-------4-------|------------------|
|-------------|--------------||-----------------|-2------------2s6-|


  Am                 D7                G                   C
  E  E E E E E E E   E  E E E Q  E E   E E E E E E E E     E E E E E E E S S
|----0---0---0-----|----2---2--------|---3---3---------|-----------------------|
|----1---1---1-----|----1---1--------|---0---0---0---0-|-----1-----------1p0---|
|------2---------2-|----2---2--------|---0---0---0---0-|-----0-0-0---0-0-------|
|------------------|-0--------0------|-----0-----------|-------2---------------|
|-0--------0---0---|------0----------|-------------2---|---3-------3-----------|
|------------------|-------------0-2-|-3-------3-------|-----------------------|
|
| H.           Q     H.          E E   H       Q   Q     a E E Q   E E E E
|------------------|-----------------|-----------------|-----------------------|
|------------------|-----------------|-----------------|-----------------------|
|------------------|-----------------|-----------------|-7-7-------7-----------|
|------------------|-----------------|-----------------|-7h9-7-7---7-6---------|
|--------------2S==|=7---------------|---------7-------|-------9---5-4---------|
|-7----------------|-------------2s4-|-5-------5---5---|---------------2s6-----|


  A7                          D7
  E  E E E E E       E   E    E E E E E E E E
|---------------------------|---2---2---2-----|
|--------0---2-----------0--|---1---1---1---0-|
|----0---0---0-----------0--|---2---2---2---0-|
|---------------------------|-0-------0-------|
|-0--------0----------------|-----0-------0---|
|------0-------------0------|-----------------|
|
| H.           a    +E  +E    W
|---------------------------|-----------------|
|---------------------------|-----------------|
|---------------------------|-----------------|
|-4-------------------------|-----------------|
|-2-------------------------|-----------------|
|--------------2b3==(2)r(2)-|-0---------------|


  G         B7        E
 3/4                 4/4
  E E  E    E  E  E   E E E E +H
|-------------------|-------0-(0)----|
|-------------------|-----0----------|
|---0----------2----|---1------------|
|------0----------4-|-2--------------|
|-----------2-------|----------------|
|-3-----------------|----------------|
|
| Q   +E  a E +Q      W
|-------------------|----------------|
|-------------------|----------------|
|-------------------|----------------|
|-------------------|----------------|
|-0---(0)-2s4-(4)---|----------------|
|-------------------|-2--------------|


  Am                 D                  G                   C
  E  E E E E E E E   E  E E E E E E E   E E E E E E E E     E E E E E E E E
|----0-------0-----|------------------|---3---3---------|-------------------|
|----1---1---1---0-|----3---3---3-----|---0---0---0-----|-----2-------------|
|--------2-------0-|----2---2---2---2-|---0---0---0---0-|-----0-------0-----|
|------2-----------|-0--------0-----0-|-----0-----------|-------2-1-2---2---|
|-0--------0---0---|------0-------0---|-------------2---|---3-------------3-|
|------------------|------------------|-3-------3-------|-------------------|
|
| H.           Q     H.           E E   Q   Q   Q   Q     a E E Q   E E E E
|------------------|------------------|-----------------|-------------------|
|------------------|------------------|-----------------|-------------------|
|------------------|------------------|-----------------|-7-7-------7-------|
|------------------|------------------|-----------------|-7h9-7-7---7-6-----|
|-2------------2S==|=7----------------|-----7---7---7---|-------9---5-4-----|
|------------------|--------------2s4-|-5-------5-------|---------------2s6-|


  A7                           D7
  S  E. E E E E       E   E    E E E E E E E E
|-------------------------0--|---2---2---------|
|-------2---2-------------0--|---1---1---1---0-|
|-------0---0-0--------------|-------2---2---0-|
|----2----2------------------|-0-------0-------|
|-0-------------------0------|-----0-------0---|
|----------------------------|-----------------|
|
| H.            a    +E  +E    Q   Q   Q   Q
|----------------------------|-----------------|
|----------------------------|-----0-----------|
|----------------------------|-----------------|
|----------------------------|---------2-------|
|-9--------------------------|-----------------|
|-7-------------2b3==(2)r(2)-|-0---------------|


   Out-Chorus
    G                      Bm
    E  E E E +E  E  E  E   E  E E E +E  E  E  E
||---------3-(3)---------|--------2-(2)---------|
||o------0-------0-------|--------------3-------|
||-----0------------0----|------4----------4----|
||---------------------0-|----4---------------4-|
||o----------------------|-2--------------------|
||--3--------------------|----------------------|
|
|   H.             +E  E   H.             +E  E
||-----------------------|----------------------|
||o----------------------|----------------------|
||---------------------5s|=6--------------(6)---|
||--7--------------(7)---|--------------------3-|
||o--------------------3s|=4--------------(4)---|
||--5--------------(5)---|--------------------1-|


  Em
  E E E E E E E E   E E   E E E E E E  4x
|-------0---0---0-|---0-----0---0------||-|
|---0---0---0---0-|---0-----0---0-----o||-|
|---0---0---0---0-|---0-----0---0------||-|
|-----------------|--------------------||-|
|-----------------|-------------------o||-|
|-0---0---0---0---|-0-----0---0---0-2--||-|
|
|     PM|           PM    PM  PM
| Q   E E Q   Q     E S S E E E E E E  4x
|-----------------|--------------------||-|
|-----------------|-------------------o||-|
|-----------------|--------------------||-|
|-4---------------|---4-4---4---4-4-6--||-|
|-------4---------|-------------------o||-|
|-2---5---2---2---|-2-----2---2---2-4--||-|


    G                     Bm
    E E E E +E  E   E E   E  E E E +E  E E E
||--------3-(3)---------|--------2-(2)---------|
||o-----0-------0-------|--------------3-------|
||----0-------------0---|------4---------4-----|
||--------------------0-|----4-------------4---|
||o---------------------|-2--------------------|
||--3-------------------|----------------------|
|
|   H        E  S S E e   H.             E E
||----------------------|----------------------|
||o---------------------|----------------------|
||--2-----------5s6---5-|-6--------------------|
||----------------------|------------------3s==|
||o-0-----------3s4---3-|-4--------------------|
||----------------------|------------------1s==|


  Em                                            G
  E E E E  E  E E E   E E E E E E E   E  3x     E  E E E +E  E  E  E
|---0---0-----0---0-|---0---0---0--------||-||---------3-(3)----------|
|---0---0-----0---0-|---0---0---0-------o||-||o------0-------0--------|
|---0---0-----0---0-|---0---0---0--------||-||-----0------------0-----|
|-------------------|--------------------||-||---------------------0--|
|-------------------|-------------------o||-||o-----------------------|
|-0---0----0----0---|-0---0---0---0---2--||-||--3---------------------|
|
| E E Q   +H          E E E E E e S S E  3x     H.             +E  E
|-------------------|--------------------||-||------------------------|
|-------------------|-------------------o||-||o-----------------------|
|-------------------|--------------------||-||---------------------5--|
|-4s3s4---(4)-------|-4s3-4s3-4-4---6----||-||--7--------------(7)----|
|-------------------|-------------------o||-||o--------------------3--|
|-2s1s2---(2)-------|-2s1-2s1-2-2---4----||-||--5--------------(5)----|


  Bm                     Em
  E  E E E +E  E  E  E   E E E E  E  E E E   E E E E E E E   E  4x
|--------2-(2)---------|---0---0-----0---0-|---0---0---0--------||
|--------------3-------|---0---0-----0---0-|---0---0---0-------o||
|------4----------4----|---0---0-----0---0-|---0---0---0--------||
|----4---------------4-|-------------------|--------------------||
|-2--------------------|-------------------|-------------------o||
|----------------------|-0---0----0----0---|-0---0---0---0---2--||
|
| H.             +E  E   E E Q   +H          E E E E E e S S E  4x
|----------------------|-------------------|--------------------||
|----------------------|-------------------|-------------------o||
|-6--------------(6)---|-------------------|--------------------||
|--------------------3s|=4s3s4---(4)-------|-4s3-4s3-4-4---6----||
|-4--------------(4)---|-------------------|-------------------o||
|--------------------1s|=2s1s2---(2)-------|-2s1-2s1-2-2---4----||            
Submit corrections


        Kodachrome  lessons Hard to play? Try these video lessons and learn fast Kodachrome  lessons
        
↑ Back to top | Tablatures and chords for acoustic guitar and electric guitar, ukulele, drums are parodies/interpretations of the original songs. You may use it for private study, scholarship, research or language learning purposes only