» » »

Paul Simon - In The Garden Of Edie Tabs

Artists:  A B C D E F G H I J K L M N O P Q R S T U V W X Y Z # 

In The Garden Of Edie Tabs

(ver. 1) Click to play this song!
Paul Simon
 Rating:
4.3/5 (27 votes)

 In The Garden Of Edie  lessons Tabs too difficult? Try these video lessons and learn fast
 
                [Instrumental]
e|------7------5-3-2-0-3--2----------7--5-7------5-3-2----------7---|
B|----5----------------------------5-------------------3------5-----|
G|-----------5---------0-----------------------5--------------------|
D|--5--------------0--(5)--------5-------------------0------5-------|
A|------------------------------------------------------------------|
E|-----------------------------0------------------------------------|

e|----5-3-2-0-3--2-------------0-------------0-------------0--------|
B|--------------------12h--7h--1----12h--7h--1----12h--7h--1--------|
G|--5---------0-------12h--7h--0----12h--7h--0----12h--7h--0--------|
D|--------0-----------12h--7h-------12h--7h-------12h--7h-----------|
A|-----------------------------3-------------3-------------3--------|
E|------------------------------------------------------------------|

e|------------------------7--5-7------5-3-2-0-3--2----------7--5-7--|
B|---------4--5--7------5---------------------------------5---------|
G|--/5-4-2--------------------------5---------0---------------------|
D|--------------------5-------------------0--(5)--------5-----------|
A|------------------------------------------------------------------|
E|------------------0---------------------------------0-------------|

e|----5-3-2----------2-----2---------------2-3-5------3-----3-------|
B|----------0------3-----3-----3---3---5--------------5---5---------|
G|--5------------0-----2-----4---4----------------------------------|
D|--------0--------------------------5---5----------2---2-----------|
A|------------------------------------------------------------------|
E|------------------------------------------------------------------|

e|------3-------2--------2-----2---------------2-3-5------3-----3---|
B|----4-------3--------3-----3-----3---3---5--------------5---5-----|
G|--5-----5-5--------0-----2-----4---4------------------------------|
D|---------------------------------------5---5----------2---2-------|
A|------------------------------------------------------------------|
E|------------------------------------------------------------------|

e|------3-------2-------------0-------------0-----------------------|
B|----4-------3------12h--7h--1----12h--7h--1----12h--7h--12h-------|
G|--5-----5-5--------12h--7h--0----12h--7h--0----12h--7h--12h-------|
D|-------------------12h--7h-------12h--7h-------12h--7h--12h-------|
A|----------------------------3-------------3-----------------------|
E|------------------------------------------------------------------|            
Submit corrections


        In The Garden Of Edie  lessons Hard to play? Try these video lessons and learn fast In The Garden Of Edie  lessons
        
↑ Back to top | Tablatures and chords for acoustic guitar and electric guitar, ukulele, drums are parodies/interpretations of the original songs. You may use it for private study, scholarship, research or language learning purposes only