» » »

Paul Revere And The Raiders - Gone Movin On Chords

Artists:  A B C D E F G H I J K L M N O P Q R S T U V W X Y Z # 

Gone Movin On Chords

(ver. 1) Click to play this song!
Paul Revere And The Raiders
 Rating:
4.3/5 (26 votes)

 Gone Movin On lessons Tabs too difficult? Try these video lessons and learn fast
 
                [Intro]

A

e|-------9-----8-7--------|
B|---------10------10-----|
G|----/9------9-----------|
D|------------------------|
A|------------------------|
E|------------------------|


[Verse]

A
You were lookin' good with your skirt so tight
         D
When the lights were low in the room last night
         A
You were tempting me with your painted smile
    D
My imagination was runnin' wild


[Pre-Chorus]

            A             E
And you can look every place
    F#m                D
But you won't see my face
        A              E
You can search everywhere
    F#m                 D
But you won't find me there


[Chorus]
           A              D
I'll be gone, gone movin' on
             A           D
I gotta be gone from now on

A

[Verse]

A
I was wrapped around your little finger then
        D
Now I'm thinkin' straight, I'm on my feet again
        A
You was looking good it was all for show
       D
It was easy come, but now it's easy go


[Pre-Chorus]

            A             E
And you can look every place
    F#m                D
But you won't see my face
        A              E
You can search everywhere
    F#m                 D
But you won't find me there


[Chorus]
           A              D
I'll be gone, gone movin' on
             A           D
I gotta be gone from now on

D

[Middle-Eight]

D
I thought you were different girl, but you're just the same
G
I can't stay here wastin' my time, playin' your game

[Instrumental Outro]

D

e|------5-5----------|
B|--5/7-----7\5-3-5--|
G|-------------------|  (X3)
D|-------------------|
A|-------------------|
E|-------------------|

G

e|-------10-10------------|
B|-10/12-------12\10-8-10-|
G|------------------------|  (X3)
D|------------------------|
A|------------------------|
E|------------------------|

D

e|-------17-17-------------|
B|-17/19-------19\17-15-17-|
G|-------------------------|  (X4)
D|-------------------------|
A|-------------------------|
E|-------------------------|

G

e|-------10-10------------|
B|-10/12-------12\10-8-10-|
G|------------------------|  (X4)
D|------------------------|
A|------------------------|
E|------------------------|

D

e|------5-5----------|
B|--5/7-----7\5-3-5--|
G|-------------------|  (X4)
D|-------------------|
A|-------------------|
E|-------------------|

G

e|-------10-10------------|
B|-10/12-------12\10-8-10-|
G|------------------------|  (X4)
D|------------------------|
A|------------------------|
E|------------------------|

D            
Submit corrections


        Gone Movin On lessons Hard to play? Try these video lessons and learn fast Gone Movin On lessons
        
↑ Back to top | Tablatures and chords for acoustic guitar and electric guitar, ukulele, drums are parodies/interpretations of the original songs. You may use it for private study, scholarship, research or language learning purposes only