» » »

Paul Hardcastle - Paradise Cove Bass

Artists:  A B C D E F G H I J K L M N O P Q R S T U V W X Y Z # 

Paradise Cove Bass

(ver. 1) Click to play this song!
Paul Hardcastle
 Rating:
4/5 (4 votes)
                

When you're listening to this song you really wish you were on a tropical remote island 
sipping on your favorite drink!

Bass Line

G|---------------------------------------------|
D|---------------------------------------------|
A|---------------------------------------------|
E|-5---3-5--3--3-5-----3----5---3-5--3--3-5----|
B|------------------5------------------------5-|

G|------------------------------------------------|
D|------------------------------------------------|
A|------------------------------------------------|
E|------------------------------------------------|
B|-3---1-3--1--1-3--1--3----3---1-3--1--1-3--1--3-|

G|---------------------------------------------|
D|---------------------------------------------|
A|---------------------------------------------|
E|-5---3-5--3--3-5-----3----5---3-5--3--3-5----|
B|------------------5------------------------5-|

G|------------------------------------------------|
D|------------------------------------------------|
A|------------------------------------------------|
E|------------------------------------------------|
B|-3---1-3--1--1-3--1--3----3---1-3--1--1-3--1--3-|

I will post the other bass line later. It's simple as well.
            
Submit corrections

↑ Back to top | Tablatures and chords for acoustic guitar and electric guitar, ukulele, drums are parodies/interpretations of the original songs. You may use it for private study, scholarship, research or language learning purposes only