» » »

Paul Brandt - Home Tabs

Artists:  A B C D E F G H I J K L M N O P Q R S T U V W X Y Z # 

Home Tabs

(ver. 1) Click to play this song!
Paul Brandt
 Rating:
4/5 (4 votes)

 Home lessons Tabs too difficult? Try these video lessons and learn fast
 
                This is a really small bit of the intro.
I have only started to work on it today. Hopefully I will
be abe to update the tab ans successfully complete the 
tab. If anyone can suggest a certan part of the tab
played another way, please notify in the comment board.

 Capo 1st fret - Drop D Tuning

|-------------------------------------------------------
|-3-------------3----------3h5-----5p3----3---------3---
|---2----------------2---2-------2----2-----------0-----
|-----0-------0--------0-------0--------0-------0-------
|-------0---0--------------0----------------------------
|---------0---------------------------------5-----------

|---------------------------------------------------------------x--
|-3-----0-------3---------3-------3h5-------5p3--3--------3-----x--
|-0---------0-----------2---2---2-------2------2--------0-------0--
|-0---0-------0-------0-------0-------0---------------0---------0--
|-x-------------------------------0-----------------------------x--
|-5-5-------------0---------------------------------5-----------5--

  Front Porch light would be turned on......
|------------------------------------------------------------------
|-3-----3----3-3h5-----5p3-----------------------------------------
|---2----------------2-------2-------------------------------------
|-----0----0-------0-------0---------------------------------------
|--------------0---------------------------------------------------
|------------------------------------------------------------------

                        I stopped here because of the 
                        background harmony it is very
                        hard hearing specific picks
                        he does on the guitar. 
                          


trying to figure out the rest. I hope you all enjoy this 
piece of the intro I worked out!
            
Submit corrections


        Home lessons Hard to play? Try these video lessons and learn fast Home lessons
        
↑ Back to top | Tablatures and chords for acoustic guitar and electric guitar, ukulele, drums are parodies/interpretations of the original songs. You may use it for private study, scholarship, research or language learning purposes only