» » »

Paul Brandt - Convoy Tabs

Artists:  A B C D E F G H I J K L M N O P Q R S T U V W X Y Z # 

Convoy Tabs

(ver. 1) Click to play this song!
Paul Brandt
 Rating:
4/5 (4 votes)

 Convoy lessons Tabs too difficult? Try these video lessons and learn fast
 
                I found this tab in a song book.... im not sure if its for the paul brandt version
 or the C.W. McCall version.... probably the latter.... I've only ever heard the 
Brandt version.... i dont even know if theres a difference between them. Any ideas
 or corrections are welcome!





Verse
----------------------------------------------------------------
----------------------------------------------------------------
----------------------------------------------------------------
----------------------------------------------------------------
---3---3-----3---3--1---1-1---3---3---1--1-1---3---0-3---3------
-----3---3-1---3--3---1---------3---3---1----4---1-----3---3-1--

Chorus
------------------------------------------
------------------------------------------
------------------------------------------
------------------------------------------
--3-6-3---6-5-3-5-6---3-6-3---6-5-3-5-6---
--------6-----------6-------6-------------
            
Submit corrections


        Convoy lessons Hard to play? Try these video lessons and learn fast Convoy lessons
        
↑ Back to top | Tablatures and chords for acoustic guitar and electric guitar, ukulele, drums are parodies/interpretations of the original songs. You may use it for private study, scholarship, research or language learning purposes only