» » »

Paul Baloche - God Of Wonders Tabs

Artists:  A B C D E F G H I J K L M N O P Q R S T U V W X Y Z # 

God Of Wonders Tabs

(ver. 1) Click to play this song!
Paul Baloche
 Rating:
4/5 (4 votes)

 God Of Wonders lessons Tabs too difficult? Try these video lessons and learn fast
 
                e|-4h5-5-5p4-------------------------------------------------------------|
B|-----------5---2-5-5/7-7-7-5------2-3-3-3-2----------------------------|
G|----------------------------4---4-----------2--------------------------|
D|----------------------------------------------4---7\4-2---4-4/2--------|
A|-----------------------------------------------------------------------|
E|-----------------------------------------------------------------------|

e|-4h5-5-5p4-------------------------------------------------------------|
B|-----------5---2-5-5/7-7-7-5------2-3-3-3-2----------------------------|
G|----------------------------4---4-----------2--------------------------|
D|----------------------------------------------4---7\4-2---4-4/2--------|
A|-----------------------------------------------------------------------|
E|-----------------------------------------------------------------------|


| /  slide up
| \  slide down
| h  hammer-on
| p  pull-off
| ~  vibrato
| +  harmonic
| x  Mute note
===============================================================================
            
Submit corrections


        God Of Wonders lessons Hard to play? Try these video lessons and learn fast God Of Wonders lessons
        
↑ Back to top | Tablatures and chords for acoustic guitar and electric guitar, ukulele, drums are parodies/interpretations of the original songs. You may use it for private study, scholarship, research or language learning purposes only