Home » P » Patti Page »

Patti Page - Tennessee Waltz Tabs

Artists:  A B C D E F G H I J K L M N O P Q R S T U V W X Y Z # 

Tennessee Waltz Tabs

(ver. 1) Click to play this song!
Patti Page
Tuning: standard

e|---|-----3------------3-------8-10-10-12-10-8---------------------------:--|
B|1-3|-3-5------1-3-3-5-----------------------------10------1---------1-3-:--|
G|---|-----5------------5-------9-10-10-12-10-10-------0--2--2-0----------:--|
D|2-3|-3-5------2-3-3-5-----------------------------------------2-0---2-3-:--|
A|---|-----------------------------------------------------------3--------:--|
E|---|--------------------------------------------------------------------:--|

e|---------------8-12-12-12-12----10---------10------------------------------|
B|--1-------------------------------13-12-13---13------1-3-0-3-5-3-0---------|
G|2--2-0---------9-13-13-13-13-------------------12------------------3-3-----|
D|------2-0------------------------------------------------------------------|
A|---------3-----------------------------------------------------------------|
E|---------------------------------------------------------------------------|

e|-------3-------------------------------------------------------------------|
B|-1-3-5------5-5-3-1-------1-----0------------------------------------------|
G|-------5-------------2-0-2-----2-------------------------------------------|
D|-2-3-5------5-5-3-2---------------2-0--------------------------------------|
A|--------------------------------------3------------------------------------|
E|---------------------------------------------------------------------------|            
Submit corrections

↑ Back to top | Tablatures and chords for acoustic guitar and electric guitar, ukulele, drums are parodies/interpretations of the original songs. You may use it for private study, scholarship, research or language learning purposes only