» » »

Patrick Watson - Lighthouse Tabs

Artists:  A B C D E F G H I J K L M N O P Q R S T U V W X Y Z # 

Lighthouse Tabs

(ver. 1) Click to play this song!
Patrick Watson
 Rating:
4/5 (4 votes)

 Lighthouse lessons Tabs too difficult? Try these video lessons and learn fast
 
                FIRST GUITAR

  Gm...........Dm..........C........................
e|-------------------------------------------------|
B|-------------------------------------------------|
G|-----3-----3-----2-----2-----0-----0-----0-----0-| x2 (Intro)
D|---5-----5-----0-----0-----2-----2-----2-----2---|
A|-5-----5-----0-----0-----3-----3-----3-----3-----|
E|-------------------------------------------------|


Leave a lighthouse in the wild
Cause I'm coming in a little blind
Dreaming of a lighthouse in the woods
Shining a little light to bring us back home

  Gm...........Dm..........C........................
e|-------------------------------------------------|
B|-------------------------------------------------|
G|-----3-----3-----2-----2-----0-----0-----0-----0-| x4 
D|---5-----5-----0-----0-----2-----2-----2-----2---|
A|-5-----5-----0-----0-----3-----3-----3-----3-----|
E|-------------------------------------------------|


  Gm...........Dm..........C........................
e|-------------------------------------------------|
B|-------------------------------------------------|
G|-----3-----3-----2-----2-----0-----0-----0-----0-| x2 (Intro)
D|---5-----5-----0-----0-----2-----2-----2-----2---|
A|-5-----5-----0-----0-----3-----3-----3-----3-----|
E|-------------------------------------------------|


Went to find you in the backyard
Hiding behind our busy lives
Dreaming of a lighthouse in the woods
To help us get back into the world

  Gm...........Dm..........C........................
e|-------------------------------------------------|
B|-------------------------------------------------|
G|-----3-----3-----2-----2-----0-----0-----0-----0-| x4
D|---5-----5-----0-----0-----2-----2-----2-----2---|
A|-5-----5-----0-----0-----3-----3-----3-----3-----|
E|-------------------------------------------------|


Bridge

  F........................Em........................
e|-------------------------------------------------|
B|-------------------------------------------------|
G|-----2-----2-----2-----2-----0-----0-----0-----0-| x2
D|---3-----3-----3-----3-----2-----2-----2-----2---|
A|-3-----3-----3-----3-----2-----2-----2-----2-----|
E|-------------------------------------------------|


  Gm...........Dm..........C........................
e|-------------------------------------------------|
B|-------------------------------------------------|
G|-----3-----3-----2-----2-----0-----0-----0-----0-| x2 (Intro)
D|---5-----5-----0-----0-----2-----2-----2-----2---|
A|-5-----5-----0-----0-----3-----3-----3-----3-----|
E|-------------------------------------------------|


Cause I know that I've seen you before

  Em............Bb..........F.......................
e|-------------------------------------------------|
B|-------------------------------------------------|
G|-----0-----0-----3-----3-----2-----2-----2-----2-| 
D|---2-----2-----3-----3-----3-----3-----3-----3---|
A|-2-----2-----1-----1-----3-----3-----3-----3-----|
E|-------------------------------------------------|

Won't you shine a little -

  Dm...................... Gm.......................
e|-------------------------------------------------|
B|-------------------------------------------------|
G|-----2-----2-----2-----2-----3-----3-----3-----3-| 
D|---0-----0-----0-----0-----5-----5-----5-----5---|
A|-0-----0-----0-----0-----5-----5-----5-----5-----|
E|-------------------------------------------------|

- light -

  A........................F#m.....................G.............
e|---------------------------------------------------------------|
B|---------------------------------------------------------------|
G|-----2-----2-----2-----2-----2-----2-----2-----2-----0-----0---|
D|---2-----2-----2-----2-----4-----4-----4-----4-----0-----0-----|
A|-0-----0-----0-----0-----4-----4-----4-----4-----2-----2-------|
E|-------------------------------------------------------------3-|

- on us now


(The next part is played with strumming: d d u d u )(Play that strumming pattern
3 times for Dm and 1 for G)

Dm  G  (x4)(start singing in the G of the 4th time)
G                       Dm
Won't you shine a little light
G               Dm
In your own backyard
G                       Dm
Won't you shine a little light
G               Dm
In your own backyard


(Strum the intro chords)(Play that strumming pattern
2 times for Gm, 2 for Dm and 4 for C)

Gm  Dm  C  (x2)

Gm            Dm                C (just one strum)
Dreaming of a lighthouse in the woods
 



SECOND GUITAR

The second guitar plays this riff everytime the first guitar plays the intro:

e|--18---17-15-13-12-10-8-6-5--8------18---17-15-13-12-10-8-6-5--8----|
B|-------------------------------8---------------------------------8--|
G|-------------------------------9---------------------------------7--| x2
D|--------------------------------------------------------------------|
A|--------------------------------------------------------------------|
E|--------------------------------------------------------------------|

Bridge (when there's no singing, before the intro is repeated)

e|-----------------------------------|
B|-0---5---0-1-----0-----5---0-1-3-5-|
G|---2---------0------2--------------| 
D|-----------------------------------|
A|-----------------------------------|
E|-----------------------------------|

            
Submit corrections


        Lighthouse lessons Hard to play? Try these video lessons and learn fast Lighthouse lessons
        
↑ Back to top | Tablatures and chords for acoustic guitar and electric guitar, ukulele, drums are parodies/interpretations of the original songs. You may use it for private study, scholarship, research or language learning purposes only