Home » P » Patrick Watson »

Patrick Watson - Je Te Laisserai Des Mots Tabs

Artists:  A B C D E F G H I J K L M N O P Q R S T U V W X Y Z # 

Je Te Laisserai Des Mots Tabs

(ver. 1) Click to play this song!
Patrick Watson
[Intro]
Guitar I
   G          G/D          G          G/D          G          G/D          G          G/D
E|-------------------------------------------------------------------------------------------------|
B|-----0---0-------0---0-------0---0-------0---0-------0---0-------0---0-------0---0-------0---0---|
G|-----0---0-------0---0-------0---0-------0---0-------0---0-------0---0-------0---0-------0---0---|
D|-------------------------------------------------------------------------------------------------|
A|-------------5-----------------------5-----------------------5-----------------------5-----------|
D|-5-----------------------5-----------------------5-----------------------5-----------------------|
 
Guitar I
   Bm          A           G                       Bm          A          G
E|-------------------------------------------------------------------------------------------------|
B|-----3---3-------2---2-------0---0-------0---0-------3---3-------2---2-------0---0-------0---0---|
G|-----4---4-------2---2-------0---0-------0---0-------4---4-------2---2-------0---0-------0---0---|
D|-------------------------------------------------------------------------------------------------|
A|-2-----------0---------------------------0---1---2-----------0---------------------------0---1---|
D|-------------------------5-----------5-----------------------------------5-----------5-----------|
 
Guitar I
   Bm          A           G                  G/A  D          D/A         F#           G
E|-------------------------------------------------------------------------------------------------|
B|-----3---3-------2---2-------0---0-------0---0-------------------------------------------0---0---|
G|-----4---4-------2---2-------0---0-------0---0-------2---2-------2---2-------3---3-------0---0---|
D|-----------------------------------------------------4---4-------4---4-------4---4---------------|
A|-2-----------0-------------------------------0---------------0-----------------------------------|
D|-------------------------5-----------5-----------0-----------------------4-----------5-----------|
 
 
Guitar I
   Bm          A6         Gmaj7                    Bm          A6        Gmaj7
E|-------------------------------------------------------------------------------------------------|
B|-----3---3-------2---2-------3---3-------3---3-------3---3-------2---2-------3---3-------3---3---|
G|-------------------------------------------------------------------------------------------------|
D|-----4---4-------4---4-------4---4-------4---4-------4---4-------4---4-------4---4-------4---4---|
A|-2-----------0-----------------------------------2-----------0-----------------------------------|
D|-------------------------5-----------5-----------------------------------5-----------5-----------|
Guitar II
E|-5---5---5---5---5---5---5---5---5---5---5---5---5---5---5---5---5---5---5---5---5---5---5---5---|
B|---7---7---7---7---7---7---7---7---7---7---7---7---7---7---7---7---7---7---7---7---7---7---7---7-|
G|---7---7---7---6---6---6---7---7---7---7---7---7---7---7---7---6---6---6---7---7---7---7---7---7-|
D|-9---9---9---7---7---7---5---5---5---5---5---5---9---9---9---7---7---7---5---5---5---5---5---5---|
A|-------------------------------------------------------------------------------------------------|
E|-------------------------------------------------------------------------------------------------|
 
 
Guitar I
   Bm          A6         Gmaj7                   D                       F#          G
E|-------------------------------------------------------------------------------------------------|
B|-----3---3-------2---2-------3---3-------3---3-------3---3-------3---3-------2---2-------3---3---|
G|-----------------------------------------------------2---2-------2---2-------3---3-------4---4---|
D|-----4---4-------4---4-------4---4-------4---4-------4---4-------4---4-------4---4-------5---5---|
A|-2-----------0-----------------------------------------------------------------------------------|
D|-------------------------5-----------5-----------0-----------0-----------4-----------5-----------|
Guitar II
E|-5---5---5---5---5---5---5---5---5---5---5---5---5---5---5---5---5---5---6---6---6---7---7---7---|
B|---7---7---7---7---7---7---7---7---7---7---7---7---7---7---7---7---7---7---7---7---7---8---8---8-|
G|---7---7---7---6---6---6---7---7---7---7---7---7---7---7---7---7---7---7---6---6---6---7---7---7-|
D|-9---9---9---7---7---7---5---5---5---5---5---5---7---7---7---7---7---7---8---8---8---9---9---9---|
A|-------------------------------------------------------------------------------------------------|
E|-------------------------------------------------------------------------------------------------|
 
 
Guitar I
   Bm          A           G                       D                       F#
E|-----2-----------0-------------------------------------------------------------------------------|
B|-----3-----------2-----------3-----------3-------3-----------------------2-----------------------|
G|-----4-----------2-----------4-----------4-------2-----------------------3-----------------------|
D|-----------------------------5-----------5-------4-----------------------4-----------------------|
A|-2-----------0-------------------------------0---5-----------------------------------------------|
D|-------------------------5-----------5-----------0-----------------------4-----------------------|
                                                                                             Je te
 
[Verse]
Guitar I
   G          G/D          G          G/D          G          G/D          G          G/D
E|-------------------------------------------------------------------------------------------------|
B|-----0---0-------0---0-------0---0-------0---0-------0---0-------0---0-------0---0-------0---0---|
G|-----0---0-------0---0-------0---0-------0---0-------0---0-------0---0-------0---0-------0---0---|
D|-------------------------------------------------------------------------------------------------|
A|-------------5-----------------------5-----------------------5-----------------------5-----------|
D|-5-----------------------5-----------------------5-----------------------5-----------------------|
   lais  -   serai     des mots,      En-dessous de ta porte,                         En-dessous de la
 
Guitar I
   Bm          A           G                       Bm          A          G
E|--------------------------------------------------------------------------------------------------|
B|-----3---3-------2---2-------0---0-------0---0--------3---3-------2---2-------0---0-------0---0---|
G|-----4---4-------2---2-------0---0-------0---0--------4---4-------2---2-------0---0-------0---0---|
D|--------------------------------------------------------------------------------------------------|
A|-2-----------0---------------------------0---1----2-----------0---------------------------0---1---|
D|-------------------------5-----------5------------------------------------5-----------5-----------|
   lu       -      ne qui chante,    Tout près de la place  où tes pieds  passent,      Cachés dans les   
 
Guitar I
   Bm          A           G                       Bm          A          G
E|--------------------------------------------------------------------------------------------------|
B|-----3---3-------2---2-------0---0-------0---0-------3---3-------2---2-------0---0----------------|
G|-----4---4-------2---2-------0---0-------0---0-------4---4-------2---2-------0---0----------------|
D|--------------------------------------------------------------------------------------------------|
A|-2-----------0---------------------------0---1---2-----------0------------------------------------|
D|-------------------------5-----------5-----------------------------------5-----------5------------|
   trous  d'un    temps d'hiver,   Et quand tu es   seule   pendant   un instant...   Embrasse  -  
 
 
[Chorus]
Guitar 1
   D          D/A          F#         G             D          D/A          F#         G
E|--------------------------------------------------------------------------------------------------|
B|-----------------3---3-------2---2-------3---3--------------------3---3-------2---2-------3---3---|
G|-----2---2-------2---2-------3---3-------4---4--------2---2-------2---2-------3---3-------4---4---|
D|-----4---4-------4---4-------4---4-------5---5--------4---4-------4---4-------4---4-------5---5---|
A|-----5---5---0----------------------------------------5---5---0-----------------------------------|
D|-0-----------------------4-----------5------------0-----------------------4-----------5-----------|
   moi,           Quand tu vou  -  dras, Embras  -   se-moi,      Quand tu  vou  -  dras, Embras -
 
Guitar I
   D          D/A          F#         G
E|--------------------------------------------------|
B|-----------------3---3-------2---2-------3---3----|
G|-----2---2-------2---2-------3---3-------4---4----|
D|-----4---4-------4---4-------4---4-------5---5----|
A|-----5---5---0------------------------------------|
D|-0-----------------------4-----------5------------|
      se-moi,     Quand tu vou    -    dras.
 
[Outro]
Guitar I
   Bm          A6         Gmaj7                    Bm          A6         Gmaj7
E|-----------------0---0-------------------------------------------0---0---------------------------|
B|-----3---3-------2---2-------3---3-------3---3-------3---3-------2---2-------3---3-------3---3---|
G|-----4---4-------2---2-------4---4-------4---4-------4---4-------2---2-------4---4-------4---4---|
D|-----4---4-------4---4-------4---4-------4---4-------4---4-------4---4-------4---4-------4---4---|
A|-2-----------0-----------------------------------2-----------0-----------------------------------|
D|-------------------------5-----------5-----------------------------------5-----------5-----------|
Guitar II                                                                                             X3
E|-5---5---5---5---5---5---5---5---5---5---5---5---5---5---5---5---5---5---5---5---5---5---5---5---|
B|---7---7---7---7---7---7---7---7---7---7---7---7---7---7---7---7---7---7---7---7---7---7---7---7-|
G|---7---7---7---6---6---6---7---7---7---7---7---7---7---7---7---6---6---6---7---7---7---7---7---7-|
D|-9---9---9---7---7---7---5---5---5---5---5---5---9---9---9---7---7---7---5---5---5---5---5---5---|
A|-------------------------------------------------------------------------------------------------|
E|-------------------------------------------------------------------------------------------------|
 
 
Guitar I
   D                       F#
E|-------------------------------------------------|
B|-3-----------------------------------------------|
G|-2-----------------------3-----------------------|
D|-4-----------------------4-----------------------|
A|-5-----------------------------------------------|
D|-0-----------------------4-----------------------|
Guitar II
E|-5-----------------------------------------------|
B|-7-----------------------------------------------|
G|-7-----------------------------------------------|
D|-7-----------------------------------------------|
A|-------------------------------------------------|
D|-------------------------------------------------|
            
Submit corrections

↑ Back to top | Tablatures and chords for acoustic guitar and electric guitar, ukulele, drums are parodies/interpretations of the original songs. You may use it for private study, scholarship, research or language learning purposes only