Home » P » Patrick Park »

Patrick Park - In Our Sunday Clothes Tabs

Artists:  A B C D E F G H I J K L M N O P Q R S T U V W X Y Z # 

In Our Sunday Clothes Tabs

(ver. 1) Click to play this song!
Patrick Park
[Verse]
It just goes on, and on and on 
e|--------------|
B|--------------|
G|--------------|
D|--5---5--5----|
A|--------------|
E|--------------|

[Bridge]
        ↓↑  C                   ↓↑  Em
e|-----0------------------|----0--------------|
B|------1-----------------|-----0-------------|
G|------0-----------------|-----0-------------|
D|------2-----------------|-----2-------------|
A|------3-----------------|-----2-------------|
E|------0-----------------|-----0-------------|x2

[Verse]
e|--------------|
B|--------------|
G|--------------|
D|--5---5--5----|
A|--------------|
E|--------------|

[Chorus]
e|------------------------|--------------------------|----------------------------------|
B|------------------------|--------------------------|-----------15-15-----15-15--12/---|
G|-----7---4----5---5--5-4|------7---4----5---5--5-4-|--\12--12-------------------------|
D|---5--------5-----------|----5--------5------------|----------------------------------|
A|------------------------|--------------------------|----------------------------------|
E|------------------------|--------------------------|----------------------------------|

e|------------------------|--------------------------|------------------------|
B|------------------------|---------5----------------|------------------------|
G|-----7---4----5---5--5-4|------7--------5---5--5-4-|-----7---4----5---5--5--|
D|---5--------5-----------|----5--------5------------|---5--------5----------5|
A|------------------------|--------------------------|------------------------|
E|------------------------|--------------------------|------------------------|

e|-------------------------|----------------------------------|--------------------------|
B|-------------------------|-----------15-15-----15-15--12/---|--------------------------|
G|-----7---4----5---5--5-4-|--\12--12-------------------------|------7---4----5---5--5-4-|
D|---5--------5------------|----------------------------------|----5--------5------------|
A|-------------------------|----------------------------------|--------------------------|
E|-------------------------|----------------------------------|--------------------------|

e|-------------------------|
B|--------5----------------|
G|-----7--------5---5--5-4-|
D|---5--------5------------|
A|-------------------------|
E|-------------------------|

[Verse]
e|--------------|
B|--------------|
G|--------------|
D|--5---5--5----|
A|--------------|
E|--------------|

[Chorus]
e|------------------------|--------------------------|----------------------------------|
B|------------------------|--------------------------|-----------15-15-----15-15--12/---|
G|-----7---4----5---5--5-4|------7---4----5---5--5-4-|--\12--12-------------------------|
D|---5--------5-----------|----5--------5------------|----------------------------------|
A|------------------------|--------------------------|----------------------------------|
E|------------------------|--------------------------|----------------------------------|

e|------------------------|--------------------------|------------------------|
B|------------------------|---------5----------------|------------------------|
G|-----7---4----5---5--5-4|------7--------5---5--5-4-|-----7---4----5---5--5--|
D|---5--------5-----------|----5--------5------------|---5--------5----------5|
A|------------------------|--------------------------|------------------------|
E|------------------------|--------------------------|------------------------|

e|-------------------------|----------------------------------|--------------------------|
B|-------------------------|-----------15-15-----15-15--12/---|--------------------------|
G|-----7---4----5---5--5-4-|--\12--12-------------------------|------7---4----5---5--5-4-|
D|---5--------5------------|----------------------------------|----5--------5------------|
A|-------------------------|----------------------------------|--------------------------|
E|-------------------------|----------------------------------|--------------------------|

e|-------------------------|
B|--------5----------------|
G|-----7--------5---5--5-4-|
D|---5--------5------------|
A|-------------------------|
E|-------------------------|

[Verse]
e|--------------|
B|--------------|
G|--------------|
D|--5---5--5----|
A|--------------|
E|--------------|
            
Submit corrections

↑ Back to top | Tablatures and chords for acoustic guitar and electric guitar, ukulele, drums are parodies/interpretations of the original songs. You may use it for private study, scholarship, research or language learning purposes only