» » »

Pat Mcgee Band - Runaway Tabs

Artists:  A B C D E F G H I J K L M N O P Q R S T U V W X Y Z # 

Runaway Tabs

(ver. 1) Click to play this song!
Pat Mcgee Band
 Rating:
4.4/5 (14 votes)

 Runaway lessons Tabs too difficult? Try these video lessons and learn fast
 
                (Intro)
                                E
e|-0--0--0-0--0--0--0--0--0--0—0--0-0-0-|
B|-0--0--0-0--0--0--0--0--0--0—0--0-0-0-|
G|-9--9--9/11\9--m--m--m--m--m—m--1-1-1-|
D|-m--m--m-m--m--9--9--9--9--7—6--2-2-2-|
A|-7--7--7/9-\7--m--m--m--m--m—m--2-2-2-|
E|-0--0--0-0--0--7--7--7--7--5—4--x-x-x-|
                               
e|-0--0--0-0--0--0--0--0--0--0—0--0-0-0-|
B|-0--0--0-0--0--0--0--0--0--0—0--0-0-0-|
G|-9--9--9/11\9--m--m--m--m--m—m--m-m-m-|
D|-m--m--m-m--m--9--9--9--9--7—6--6-6-6-|
A|-7--7--7/9-\7--m--m--m--m--m—m--m-m-m-|
E|-0--0--0-0--0--7--7--7--7--5—4--4-4-4-|

                                E
e|-0--0--0-0--0--0--0--0--0--0—0--0-0-0-|
B|-0--0--0-0--0--0--0--0--0--0—0--0-0-0-|
G|-9--9--9/11\9--m--m--m--m--m—m--1-1-1-|
D|-m--m--m-m--m--9--9--9--9--7—6--2-2-2-|
A|-7--7--7/9-\7--m--m--m--m--m—m--2-2-2-|
E|-0--0--0-0--0--7--7--7--7--5—4--x-x-x-|

                                E
e|-0--0--0-0--0--0--0--0--0--0—0--0-|
B|-0--0--0-0--0--0--0--0--0--0—0--0-|
G|-9--9--9/11\9--m--m--m--m--m—m--1-|
D|-m--m--m-m--m--9--9--9--9--7—6--2-|
A|-7--7--7/9-\7--m--m--m--m--m—m--2-|
E|-0--0--0-0--0--7--7--7--7--5—4--x-|

(Verse 1)
E             A         E
Gone away and hide your eyes
E                A     E
Stay for me with no disguise
E                     A
We should fall, still we can rise
       G          A       (intro figure)
Lay it down, your heart, tonight

e|-0--0--0-0--0--0--0--0--0--0—0--0-0-0-|
B|-0--0--0-0--0--0--0--0--0--0—0--0-0-0-|
G|-9--9--9/11\9--m--m--m--m--m—m--m-m-m-|
D|-m--m--m-m--m--9--9--9--9--7—6--6-6-6-|
A|-7--7--7/9-\7--m--m--m--m--m—m--m-m-m-|
E|-0--0--0-0--0--7--7--7--7--5—4--4-4-4-|


                                E
e|-0--0--0-0--0--0--0--0--0--0—0--0-|
B|-0--0--0-0--0--0--0--0--0--0—0--0-|
G|-9--9--9/11\9--m--m--m--m--m—m--1-|
D|-m--m--m-m--m--9--9--9--9--7—6--2-|
A|-7--7--7/9-\7--m--m--m--m--m—m--2-|
E|-0--0--0-0--0--7--7--7--7--5—4--x-|

(Verse 2)

E                   A        E
Try to imagine your soul set free
E             A      E
Let it go and run to me
E                        A
You've got my heart, now take my life
       G        A
Lay it down, my love

(Chorus)
 
                B  A       E
e|-0-0-0--0--0--0--0-0--0--0---|
B|-0-0-0--0--0--0--0-0--0--0---|
G|-9—9-9--9--6--4--2-2--2--1---|
D|-9—9-9--9--6--4--2-2--2--2---|   3x
A|-7—7-7--6--4--2--0-0--0--2---|
E|-----------------------------|
Runaway, runaway, runaway to me
Runaway, darlin' won't you stay with me
Runaway, runaway, runaway to me

               A        E
e|--0-0-0-0-0--0-0-0-0--0---|
B|--0-0-0-0-0--0-0-0-0--0---|
G|--5—5-5-5-5--2-2-2-2--1---|
D|--5—5-5-5-5--2-2-2-2--2---| 
A|--3—3-3-3-3--0-0-0-0--2---|
E|--------------------------|           
Now I will back you up
                                E
e|-0--0--0-0--0--0--0--0--0--0—0--0-0-0-|
B|-0--0--0-0--0--0--0--0--0--0—0--0-0-0-|
G|-9--9--9/11\9--m--m--m--m--m—m--1-1-1-|
D|-m--m--m-m--m--9--9--9--9--7—6--2-2-2-|
A|-7--7--7/9-\7--m--m--m--m--m—m--2-2-2-|
E|-0--0--0-0--0--7--7--7--7--5—4--x-x-x-|

                                E
e|-0--0--0-0--0--0--0--0--0--0—0--0-|
B|-0--0--0-0--0--0--0--0--0--0—0--0-|
G|-9--9--9/11\9--m--m--m--m--m—m--1-|
D|-m--m--m-m--m--9--9--9--9--7—6--2-|
A|-7--7--7/9-\7--m--m--m--m--m—m--2-|
E|-0--0--0-0--0--7--7--7--7--5—4--x-|

(Verse 3)

E                     A        E
You can hear the time slippin' away
E                 A   E
You cry the tears for today
E                            A
She screams come inside, but you can't stay
       G        A
Lay it down, my love


(Chorus)
 
                B  A       E
e|-0-0-0--0--0--0--0-0--0--0---|
B|-0-0-0--0--0--0--0-0--0--0---|
G|-9—9-9--9--6--4--2-2--2--1---|
D|-9—9-9--9--6--4--2-2--2--2---|   3x
A|-7—7-7--6--4--2--0-0--0--2---|
E|-----------------------------|
Runaway, runaway, runaway to me
Runaway, darlin' won't you stay with me
Runaway, runaway, runaway to me

(Bridge)

               A        B
e|--0-0-0-0-0--0-0-0-0--0-0-0-0--|
B|--0-0-0-0-0--0-0-0-0--0-0-0-0--|
G|--5—5-5-5-5--2-2-2-2--4-4-4-4--|  
D|--5—5-5-5-5--2-2-2-2--4-4-4-4--| 
A|--3—3-3-3-3--0-0-0-0--2-2-2-2--|
E|-------------------------------|           
I will back you up……you up…..

               A        B
e|--0-0-0-0-0--0-0-0-0--0-0-0-0--|
B|--0-0-0-0-0--0-0-0-0--0-0-0-0--|
G|--5—5-5-5-5--2-2-2-2--4-4-4-4--|  
D|--5—5-5-5-5--2-2-2-2--4-4-4-4--| 
A|--3—3-3-3-3--0-0-0-0--2-2-2-2--|
E|-------------------------------|
Now I will back you up…..up

e|--0-0-0-0-0--0-0-0-0--0--|
B|--0-0-0-0-0--0-0-0-0--0--|
G|--5—5-5-5-5--7-7-7-7--9--|  
D|--5—5-5-5-5--7-7-7-7--9--| 
A|--3—3-3-3-3--5-5-5-5--7--|
E|-------------------------|
Now I will back you up……Everyone’s


(Verse 4)

E          A         E
Everyone's around us now
E                 A        E
But still we only hear one sound
E                    A
It's so intense, you just can't breathe
       G        A
Lay it down, my love...

(Chorus)
 
                B  A       E
e|-0-0-0--0--0--0--0-0--0--0---|
B|-0-0-0--0--0--0--0-0--0--0---|
G|-9—9-9--9--6--4--2-2--2--1---|
D|-9—9-9--9--6--4--2-2--2--2---|   3x
A|-7—7-7--6--4--2--0-0--0--2---|
E|-----------------------------|
Runaway, runaway, runaway to me
Runaway, darlin' won't you stay with me
Runaway, runaway, runaway to me

               A        E
e|--0-0-0-0-0--0-0-0-0--0---|
B|--0-0-0-0-0--0-0-0-0--0---|
G|--5—5-5-5-5--2-2-2-2--1---|  x3
D|--5—5-5-5-5--2-2-2-2--2---| 
A|--3—3-3-3-3--0-0-0-0--2---|
E|--------------------------|
Now I will back you up
Now I will back you up
Now I will back you up
                                
e|-0--0--0-0--0--0--0--0--0--0—0---|
B|-0--0--0-0—-0--0--0--0--0--0—0---|
G|-9--9--9/11\9--m--m--m--m--m—m---|
D|-m--m--m-m--m--9--9--9--9--7—6---|
A|-7--7--7/9-\7--m--m--m--m--m—m---|
E|-0--0--0-0--0--7--7--7--7--5—4---|

                            A  E
e|-0--0---0---0---0---0--0—-0--0-|
B|-0--0---0---0---0---0--0--0--0-|
G|-9—-11--14--13--11--9--0--0--1-|
D|-9—-11--14--13--11--9--9--7--2-|  
A|-7—-9---12--11--9---7--9--7--2-|
E|-----------------------7--5----| 

            
Submit corrections


        Runaway lessons Hard to play? Try these video lessons and learn fast Runaway lessons
        
↑ Back to top | Tablatures and chords for acoustic guitar and electric guitar, ukulele, drums are parodies/interpretations of the original songs. You may use it for private study, scholarship, research or language learning purposes only