Home » P » Pat Boone »

Pat Boone - Speedy Gonzales Bass

Artists:  A B C D E F G H I J K L M N O P Q R S T U V W X Y Z # 

Speedy Gonzales Bass

(ver. 1) Click to play this song!
Pat Boone
Intro: (No Bass on Intro)

Verse 1:
You'd better come home Speedy Gonzales...
G|-----------------------------------------------------------------|
D|-------------------------------9--9----9--9--9---6--6----6--6--6-|
A|-----------------------------------9-9-----9---------6-6-----6---|
E|-----------------------------------------------------------------|

G|------------------------------------------------------|
D|-----------------------------6--7--8--9--9----9--9--9-|
A|-7--7----7--7--7---9--9----9--------------9-9-----9---|
E|-----7-7-----7---------9-9----------------------------|

                                                  (Break)
G|---------------------------------------------------|
D|-6--6----6--6--6-----------------------------------|
A|-----6-6-----6-----7--7-7---9--9--9--------7--7----|
E|-----------------------7--------9-----7--7-------7-|

Chorus 1:
  Speedy Gonzales...                                               (Break)
G|------------------------------------------------------------------|
D|----------2--2----2--2--2----------------------2--2----2----2-3-4-|
A|--------------2-2-----2-----2--2----2--2--2--------2-2----2-------|
E|--------------------------------2-2-----2-------------------------|

First Ad Lib Spoken Bit:

Interlude:                                                     (Break)
G|-----------------------------------------------------------------|
D|-9--9----9--9--9---6--6----6--6--6-------------------------------|
A|-----9-9-----9---------6-6-----6-----7--7----7--7--7---9--9----9-|
E|-----------------------------------------7-7-----7---------9-9---|

Verse 2:
  Your dog is gonna have a puppy...
G|-----------------------------------------------------------|
D|-------------------------9--9----9--9--9---6--6----6--6--6-|
A|-----------------------------9-9-----9---------6-6-----6---|
E|-----------------------------------------------------------|

G|------------------------------------------------------|
D|-----------------------------6--7--8--9--9----9--9--9-|
A|-7--7----7--7--7---9--9----9--------------9-9-----9---|
E|-----7-7-----7---------9-9----------------------------|

                                                  (Break)
G|---------------------------------------------------|
D|-6--6----6--6--6-----------------------------------|
A|-----6-6-----6-----7--7-7---9--9--9--------7--7----|
E|-----------------------7--------9-----7--7-------7-|

Chorus 2:
  Speedy Gonzales...                                               (Break)
G|------------------------------------------------------------------|
D|----------2--2----2--2--2----------------------2--2----2----2-3-4-|
A|--------------2-2-----2-----2--2----2--2--2--------2-2----2-------|
E|--------------------------------2-2-----2-------------------------|

Second Ad Lib Spoken Bit:

Outro:                                                 (Repeat To Fade/End)
G|------------------------------------------------------------------------|
D|-9--9----9--9--9---6--6----6--6--6------------------------------6--7--8-|
A|-----9-9-----9---------6-6-----6----7--7----7--7--7---9--9----9---------|
E|----------------------------------------7-7-----7---------9-9-----------|            
Submit corrections

↑ Back to top | Tablatures and chords for acoustic guitar and electric guitar, ukulele, drums are parodies/interpretations of the original songs. You may use it for private study, scholarship, research or language learning purposes only