» » »

Pat Benatar - Love Is A Battlefield Bass

Artists:  A B C D E F G H I J K L M N O P Q R S T U V W X Y Z # 

Love Is A Battlefield Bass

(ver. 2) Click to play this song!
Pat Benatar
 Rating:
2.3/5 (25 votes)

 Love Is A Battlefield lessons Tabs too difficult? Try these video lessons and learn fast
 
                --------------------------
INTRO
******
G|---------|-------|-------|----|
D|---------|-------|-------|----|
A|-5-5-0-5-|-0-3-3-|-0-0-1-|-03-|
D|---------|-------|-------|----|X3


  (We Are Young)
G|---------|-------|-------|
D|---------|-------|-------|
A|-5-5-0-5-|-0-3-3-|-0-0-1-|
D|---------|-------|-------|X4


--------------------------
CHORUS
*******
We are strong.............
G|----|---------|-------|-------|----|---------|-------|-------|
D|----|---------|-------|-------|----|---------|-------|-------|
A|-03-|-5-5-0-5-|-0-3-3-|-0-0-1-|-03-|-5-5-0-5-|-0-3-3-|-0-0-1-|
D|----|---------|-------|-------|----|---------|-------|-------|


e|----|---------|-------|---------------|
D|----|---------|-------|---------------|
A|-03-|-5-5-0-5-|-0-3-3-|----------s----|
D|----|---------|-------|-7-7-8---8\--0-|


--------------------------
VERSE 1
********
You're begging  me to go
G|------------------------------------|------------------------------------|
D|------------------------------------|------------------------------------|
A|-5---------3-----------1------------|-5---------3-----------1------------|
D|----------------------------------5-|----------------------------------5-|


G|---------------------------------------------------------------|
D|---------------------------------------------------------------|
A|-5---------3-----------1--1-1--1-1--1--------------------------|
D|---------------------------------------5--5-5--5-5--5--5-5-~~~-|


--------------------------
CHORUS
*******
We are young
G|---------|-------|-------|----|---------|-------|-------|----|
D|---------|-------|-------|----|---------|-------|-------|----|
A|-5-5-0-5-|-0-3-3-|-0-0-1-|-03-|-5-5-0-5-|-0-3-3-|-0-0-1-|-03-|
D|---------|-------|-------|----|---------|-------|-------|----|


G|---------|---------|-------|----|---------|-------|-------|----|
D|---------|---------|-------|----|---------|-------|-------|----|
A|-5-5-0-5-|-----3-3-|-0-0-1-|-03-|-5-5-0-5-|-0-3-3-|-0-0-1-|-03-|
E|---------|-3-5-----|-------|----|---------|-------|-------|----|

We are strong
G|---------|-------|-------|----|---------|-------|-------|----|
D|---------|-------|-------|----|---------|-------|-------|----|
A|-5-5-0-5-|-0-3-3-|-0-0-1-|-03-|-5-5-0-5-|-0-3-3-|-0-0-1-|-03-|
D|---------|-------|-------|----|---------|-------|-------|----|


G|---------|---------|----------------|
D|---------|---------|----------------|
A|-5-5-0-5-|-----3-3-|-0-0-1---1------|
E|---------|-3-5-----|--------------0-|


--------------------------
VERSE 2
********
When I'm losing  control
G|------------------------------------|------------------------------------|
D|------------------------------------|------------------------------------|
A|-5---------3-----------1------------|-5---------3-----------1------------|
D|----------------------------------5-|----------------------------------5-|


G|---------------------------------------------------------------|
D|---------------------------------------------------------------|
A|-5---------3-----------1--1-1--1-1--1--------------------------|
D|---------------------------------------5--5-5--5-5--5--5-5-~~~-|


--------------------------
CHORUS
******* 
We are young
G|---------|---------|-------|----|---------|---------|-------|----|
D|---------|---------|-------|----|---------|---------|-------|----|
A|-5-5-0-5-|-----3-3-|-0-0-1-|-03-|-5-5-0-5-|-----3-3-|-0-0-1-|-03-|
E|---------|-3-5-----|-------|----|---------|-3-5-----|-------|----|


G|---------|---------|-------|----|---------|---------|-------|----|
D|---------|---------|-------|----|---------|---------|-------|----|
A|-5-5-0-5-|-----3-3-|-0-0-1-|-03-|-5-5-0-5-|-----3-3-|-0-0-1-|-03-|
E|---------|-3-5-----|-------|----|---------|-3-5-----|-------|----|

We are strong
G|---------|---------|-------|----|---------|---------|-------|----|
D|---------|---------|-------|----|---------|---------|-------|----|
A|-5-5-0-5-|-----3-3-|-0-0-1-|-03-|-5-5-0-5-|-----3-3-|-0-0-1-|-03-|
E|---------|-3-5-----|-------|----|---------|-3-5-----|-------|----|


G|---------|---------|------------|
D|---------|---------|------------|
A|-5-5-0-5-|-----3-3-|-0-0-1-~~~~-|
E|---------|-3-5-----|------------|


--------------------------
WHISTLE
********
04:14
G|-------|-------|------------------------------------------------7----------------|
D|-------|-------|--------------------------------------------------7--------------|
A|-------|-------|--------------------------------3-4-5--5-5-5--5-----8-7-3--3-3-3-|
E|-0-0-3-|-0-0-3-|-0-0-3--0-0-3--0-0-3--0-0-0-3-0----------------------------------|


G|-7------------------------------------|----------------------|-7----------------|
D|---7----------------------------------|----------------------|---7--------------|
A|-----8-7-1--1-1-1--1-1-1--1-1--1-1--1-|------1-3-5--5-5--5-5-|-----8-7-3-3--3-3-|
E|--------------------------------------|-3-4------------------|------------------|


G|-7------------------------------------|
D|---7----------------------------------|
A|-----8-7-1--1-1-1--1-1-1--1-1--1-1--1-|
E|--------------------------------------|


--------------------------
CHORUS
******* 
We are young
G|-----------|---------|-------|----|-----------|---------|-------|----|
D|-----------|---------|-------|----|-----------|---------|-------|----|
A|-5-5-----5-|-----3-3-|-0-0-1-|-03-|-5-5-----5-|-----3-3-|-0-0-1-|-03-|
E|-----0-5---|-3-5-----|-------|----|-----0-5---|-3-5-----|-------|----|


G|-----------|---------|-------|----|-----------|---------|-------|----|
D|-----------|---------|-------|----|-----------|---------|-------|----|
A|-5-5-----5-|-----3-3-|-0-0-1-|-03-|-5-5-----5-|-----3-3-|-0-0-1-|-03-|
E|-----0-5---|-3-5-----|-------|----|-----0-5---|-3-5-----|-------|----|


We are strong
G|-----------|---------|-------|----|-----------|---------|-------|----|
D|-----------|---------|-------|----|-----------|---------|-------|----|
A|-5-5-----5-|-----3-3-|-0-0-1-|-03-|-5-5-----5-|-----3-3-|-0-0-1-|-03-|
E|-----0-5---|-3-5-----|-------|----|-----0-5---|-3-5-----|-------|----|

                              Fade Out.................................
G|-----------|---------|-------|----|-----------|---------|-------|----|
D|-----------|---------|-------|----|-----------|---------|-------|----|
A|-5-5-----5-|-----3-3-|-0-0-1-|-03-|-5-5-----5-|-----3-3-|-0-0-1-|-03-|
E|-----0-5---|-3-5-----|-------|----|-----0-5---|-3-5-----|-------|----|
            
Submit corrections


        Love Is A Battlefield lessons Hard to play? Try these video lessons and learn fast Love Is A Battlefield lessons
        
↑ Back to top | Tablatures and chords for acoustic guitar and electric guitar, ukulele, drums are parodies/interpretations of the original songs. You may use it for private study, scholarship, research or language learning purposes only