» » »

Pat Barrett - The Way New Horizon Tabs

Artists:  A B C D E F G H I J K L M N O P Q R S T U V W X Y Z # 

The Way New Horizon Tabs

(ver. 1) Click to play this song!
Pat Barrett
 Rating:
4.3/5 (21 vote)

 The Way New Horizon lessons Tabs too difficult? Try these video lessons and learn fast
 
                [Verse 1]
(Swells starting on "You are my portion")

[Chorus - Main hook]
e|--4----4-----------------------------------------|
B|----5----5/7-------------------------------------|
G|-------------------------------------------------|
D|-------------------------------------------------|
A|-------------------------------------------------|
E|-------------------------------------------------|

[Verse 2]
e|-------------------------------------------------|
B|------0------------------------------------------|
G|----1---1---1--1h2-1-----------------------------|
D|--2------2---------------------------------------|
A|-------------------------------------------------|
E|-------------------------------------------------|

[Chorus - Main hook]
e|--4----4-----------------------------------------|
B|----5----5/7-------------------------------------|
G|-------------------------------------------------|
D|-------------------------------------------------|
A|-------------------------------------------------|
E|-------------------------------------------------|

[After chorus 2 it's a breakdown with very quiet main hook]

[Bridge 1 and Bridge 2]
(slow build)
e|---4h6--4h6--------------------------------------|
B|--5----5-----------------------------------------|
G|-------------------------------------------------|
D|-------------------------------------------------|
A|-------------------------------------------------|
E|-------------------------------------------------|

            
Submit corrections


        The Way New Horizon lessons Hard to play? Try these video lessons and learn fast The Way New Horizon lessons
        
↑ Back to top | Tablatures and chords for acoustic guitar and electric guitar, ukulele, drums are parodies/interpretations of the original songs. You may use it for private study, scholarship, research or language learning purposes only