» » »

Passion Pit - To Kingdom Come Bass

Artists:  A B C D E F G H I J K L M N O P Q R S T U V W X Y Z # 

To Kingdom Come Bass

(ver. 1) Click to play this song!
Passion Pit
 Rating:
4/5 (4 votes)
                
this song is super easy. its basically the same bass notes over and over again but in
combinations. anyways, for the pre chorus you might wanna use a slight fuzz distortion
with a volume pedal or it wont sound right. you all can figure out the timing to this 
and rhythm but ill put what i can

Tunning
E A D G

intro and verse:

------------------------------------------------------------------------------|
------------------------------------------------------------------------------|
3--3-3----3--3-3----3--3-3----3--3-3----2--2-2----2--2-2----------------------|
-------------------------------------------------------------0--0-0----0--0-0-|

------------------------------------------------------------------------------|
------------------------------------------------------------------------------|
3--3-3----3--3-3----5--5-5----5--5-5----2--2-2----2--2-2----------------------|
-------------------------------------------------------------0--0-0----0--0-0-|

pre chorus: fade in on notes from the volume pedal up (no volume) to open (full volume).
(s) means to sustain the note

fade in=====|(s)      fade in========|(s)      fade in=======|(s)
-----------------------------------------------------------------------------|
-----------------------------------------------------------------------------|
------------3------------------------2-----------------------5---------------|
-----------------------------------------------------------------------------|

chorus:

-----------------------------------------------------------------------------|
-----------------------------------------------------------------------------|
-3-3-3-3-3-3-3-3---2-2-2-2---5-5-5-5---3-3-3-3---5-5-5-5---2-2-2-2---5-5-5-5-|
-----------------------------------------------------------------------------|


thats about it, pretty simple bass line but fun :D
            
Submit corrections

↑ Back to top | Tablatures and chords for acoustic guitar and electric guitar, ukulele, drums are parodies/interpretations of the original songs. You may use it for private study, scholarship, research or language learning purposes only