Home » P » Passion Pit »

Passion Pit - Carried Away Tabs

Artists:  A B C D E F G H I J K L M N O P Q R S T U V W X Y Z # 

Carried Away Tabs

(ver. 1) Click to play this song!
Passion Pit
Tuning:Standard 

e|---------------------------------------------------------------------------| Intro   
B|---8H---8/10------------------8H---8/10------------------------------------|
G|-------------7-9H---7h9p7\5-------------7-9H---7h9p7\5---------------------|
D|---------------------------------------------------------------------------|
A|---------------------------------------------------------------------------|
E|---------------------------------------------------------------------------|

e|---------------------------------------------------------------------------| Verse 1 
B|---10-10\8-8---------------------------------8-8\5-------------------------|
G|-------------7-7-7-9-7-5-------7-9-7-5-7-5-5-------------------------------| Since my heart is golden,I've 
D|-------------------------7-5-----------------------------------------------| got sense to hold in/Tempted
A|---------------------------------------------------------------------------| not to make an ugly scene
E|---------------------------------------------------------------------------|

e|---------------------------------------------------------------------------| Verse 1 
B|---10-10\8-8---------------------------------8-8\5-------------------------|
G|-------------7-7-7-9-7-5-------7-9-7-5-7-5-5-------------------------------| No I'm not as proper,my
D|-------------------------7-5-----------------------------------------------| money's in copper/Ripped down
A|---------------------------------------------------------------------------| from the brownstones to the 
E|---------------------------------------------------------------------------| street 

e|---------------------------------------------------------------------------| Verse 1 
B|-----------------------------------------------------8-8\5-----------------|
G|---5---7-9-7-5-7-9---7-7-9-7-5-7\5---7-7-9-7-5-7-5-5-----------------------| Listen,I'm your friend don't
D|-----5---------------------------------------------------------------------| quote me,but not a friend 
A|---------------------------------------------------------------------------| worth noting/Yes please don't
E|---------------------------------------------------------------------------| ever note me as your friend 
 
e|---------------------------------------------------------------------------| Verse 1 
B|---10-10\8-8-----------------------------------8-8/5---8-5-----------------|
G|-------------7-7---7-9-7-5-------7-9-7-5-7\5-5-------------7-5-------------| Who says we have cold hearts,
D|---------------------------5-3---------------------------------------------| acting out our old parts/Let's
A|---------------------------------------------------------------------------| perform our favorite little
E|---------------------------------------------------------------------------| scene/Ooh ooh ooh ooh 

e|-------5p3-5---------------------------------------------------------------| Chorus 
B|---8-5-------5-----------8-------------------------------------------------|
G|-----------------5h7/9-9---------------------------------------------------| I get carried away/Carried 
D|---------------------------7---7-5-7-9-10-9-10-12-10-----------------------| away from you,and I'm hoping
A|---------------------------------------------------------------------------| and I'm praying cause... 
E|---------------------------------------------------------------------------|

e|-------5p3-5---------------------------------------------------------------| Chorus 
B|---8-5-------5-------------8-----------------------------------------------|
G|-----------------5h7/9-9-9-------------------------------------------------| I'm sorry,sorry about that/ 
D|-----------------------------7---5-7/9-10-9-9-10-12-10---------------------| Sorry about the things that 
A|---------------------------------------------------------------------------| I said,always let it get
E|---------------------------------------------------------------------------| to my head 

e|---------------------------------------------------------------------------| Bridge  
B|---8H---8/10------------------8H---8/10------------------------------------|
G|-------------7-9H---7h9p7\5-------------7-9H---7h9p7\5---------------------|
D|---------------------------------------------------------------------------|
A|---------------------------------------------------------------------------|
E|---------------------------------------------------------------------------|

e|---------------------------------------------------------------------------| Verse 2 
B|---10-10\8-8---------------------------------8-8\5-------------------------|
G|-------------7-7-7-9-7-5-------7-9-7-5-7-5-5-------------------------------| All your appeal,once again 
D|-------------------------7-5-----------------------------------------------| with feeling/Higher education
A|---------------------------------------------------------------------------| making sense 
E|---------------------------------------------------------------------------|

e|---------------------------------------------------------------------------| Verse 2 
B|---10-10\8-8---------------------------------8-8\5-------------------------|
G|-------------7-7-7-9-7-5-------7-9-7-5-7-5-5-------------------------------| Justify your thesis,certain 
D|-------------------------7-5-----------------------------------------------| that you need it/Tell me what
A|---------------------------------------------------------------------------| your point is in defense 
E|---------------------------------------------------------------------------|  

e|---------------------------------------------------------------------------| Verse 2 
B|-----------------------------------------------------8-8\5-----------------|
G|---5---7-9-7-5-7-9---7-7-9-7-5-7\5---7-7-9-7-5-7-5-5-----------------------| Listen,I don't really know 
D|-----5---------------------------------------------------------------------| you,and I don't think I want 
A|---------------------------------------------------------------------------| to/But I think I can fake it 
E|---------------------------------------------------------------------------| if you again 
 
e|---------------------------------------------------------------------------| Verse 2 
B|---10-10\8-8-----------------------------------8-8/5---8-5-----------------|
G|-------------7-7---7-9-7-5-------7-9-7-5-7-5-5-------------7-5-------------| Let's agree there's no need,
D|---------------------------5-3---------------------------------------------| no more talk of money/Let's
A|---------------------------------------------------------------------------| just keep pretending to be 
E|---------------------------------------------------------------------------| friends/Ooh ooh ooh ooh 

e|-------5p3-5---------------------------------------------------------------| Chorus (x2)  
B|---8-5-------5-----------8-------------------------------------------------|
G|-----------------5h7/9-9---------------------------------------------------| I get carried away/Carried 
D|---------------------------7---7-5-7-9-10-9-10-12-10-----------------------| away from you,and I'm hoping
A|---------------------------------------------------------------------------| and I'm praying cause... 
E|---------------------------------------------------------------------------|

e|-------5p3-5---------------------------------------------------------------| Chorus (x2) 
B|---8-5-------5-------------8-----------------------------------------------|
G|-----------------5h7/9-9-9-------------------------------------------------| I'm sorry,sorry about that/ 
D|-----------------------------7---5-7/9-10-9-9-10-12-10---------------------| Sorry about the things that 
A|---------------------------------------------------------------------------| I said,always let it get
E|---------------------------------------------------------------------------| to my head

e|---------------------------------------------------------------------------| Verse 3 
B|---8-8-8-8-8\6-6---6-6-6-6-6\5-5---6-6-6-6-6-5---6-6-6-6-6-5---------------|
G|-----------------------------------------------5---------------------------| Wake up in the morning/
D|---------------------------------------------------------------------------| Wake up the evening/
A|---------------------------------------------------------------------------| Wake up when you want to 
E|---------------------------------------------------------------------------| cause no one's really watching

e|---------------------------------------------------------------------------| Verse 3 
B|---3-3-3/5-6\5-5\3-----------3-6-6\5-5---3-3-6-6-6\5-5---------------------|
G|-------------------5\2---2-2-----------------------------------------------| Well she'll have something to
D|---------------------------------------------------------------------------| say about it/But we all have 
A|---------------------------------------------------------------------------| problems/We're all having 
E|---------------------------------------------------------------------------| problems 

e|---------------------------------------------------------------------------| Verse 3 
B|---3-3-3-6-6-5-6-8H--------------------------------------------------------|
G|---------------------------------------------------------------------------| And we've all got something 
D|---------------------------------------------------------------------------| to say 
A|---------------------------------------------------------------------------|
E|---------------------------------------------------------------------------|

e|-------5p3-5---------------------------------------------------------------| Chorus (x2)  
B|---8-5-------5-----------8-------------------------------------------------|
G|-----------------5h7/9-9---------------------------------------------------| I get carried away/Carried 
D|---------------------------7---7-5-7-9-10-9-10-12-10-----------------------| away from you,and I'm hoping
A|---------------------------------------------------------------------------| and I'm praying cause... 
E|---------------------------------------------------------------------------|

e|-------5p3-5---------------------------------------------------------------| Chorus (x2)  
B|---8-5-------5-------------8-----------------------------------------------|
G|-----------------5h7/9-9-9-------------------------------------------------| I'm sorry,sorry about that/ 
D|-----------------------------7---5-7/9-10-9-9-10-12-10---------------------| Sorry about the things that 
A|---------------------------------------------------------------------------| I said,always let it get
E|---------------------------------------------------------------------------| to my head

e|---------------------------------------------------------------------------| Final 
B|---8H---8/10------------------8H---8/10------------------------------------|
G|-------------7-9H---7h9p7\5-------------7-9H---7h9p7-5X--------------------|
D|---------------------------------------------------------------------------|
A|---------------------------------------------------------------------------|
E|---------------------------------------------------------------------------|            
Submit corrections

↑ Back to top | Tablatures and chords for acoustic guitar and electric guitar, ukulele, drums are parodies/interpretations of the original songs. You may use it for private study, scholarship, research or language learning purposes only