Home » P » Passion »

Passion - Theres Nothing That Our God Cant Do Tabs

Artists:  A B C D E F G H I J K L M N O P Q R S T U V W X Y Z # 

Theres Nothing That Our God Cant Do Tabs

(ver. 1) Click to play this song!
Passion
[Intro]
 
e|---------------------------------------------------------------------------|
B|--------16-------16~~~-------16-------16------14--13~~~--------------------|
G|----13-------13----------13-------13------13-----------x2------13~~~-------|
D|--------------------------------------------------------------hold---------|
A|---------------------------------------------------------------------------|
E|---------------------------------------------------------------------------|
 
 
[Verse 1]
 
 
     (Db)
e|-------------------------------------------|
B|-------------------------------------------|
G|-------------------------------------------|
D|-------1------1----------------------------|
A|----------------------4---3~~~-------------|
E|----4------4------4------------------------|
 
   (Ab)                (Db)
e|-------------------------------------------|
B|-------------------------------------------|
G|------------1~~~~-------------1~~~~--------|  x2
D|--------------------1-h-3------------------|
A|---1-h-3-------------------4---------------|
E|---------4---------------------------------|
 
 
 
[Chorus 1]
 
Ab Db Fm Eb Db
 
    Ab      (Db)         (Fm)    (Eb)   (Db)
e|---4---------------------8------11------9----------------------------------|
B|---4---------------------9-------9------9----------------------------------|
G|---1--------------------10-------8-----10----------------------------------|
D|---1-----------------------------------------------------------------------|
A|---3-----------------------------------------------------------------------|
E|---4-----------------------------------------------------------------------|
 
 
[Verse 2] 1:24
 
    Ab    Db(2)     v  v     Ab       (Db)
e|---4-----1--------1--1------4-----------------------------------11---------|
B|---4-----2--------2--1------4-------------6-----4~~~~//9-9---11------------|
G|---1-----1---~~~--1--1------1--------3//8----------------------------------|
D|---1-----1--------1---------1-----------------1----------------------------|
A|---3-----4--------4---------3----------------------------------------------|
E|---4------------------------4----------------------------------------------|
 
    (Ab)    (Db)                    (Fm)    (Eb)             Db
e|-------------------------------------------------------------------1-------|
B|---13~~~~~-----14--13~~----14--13----------------------------------2-------|
G|-----------13-----------13--------------------1---1-----1----------1-------|
D|-----------------------------------15~~~----5---5---5-6---5/3~~----3-------|
A|-------------------------------------------------------------------4-------|
E|---------------------------------------------------------------------------|
                                                Slide and pick^
 
[Chorus 2] 2:01
 
    Ab                 Db                  Fm        Eb         Db      v  v
e|---4--------8---------1--------8-------------4----------4------4---9--9--8-|
B|---4---4//9----9~~----4---4//9----9~~--------4----------4------4---9--9--9-|
G|---1------------------1----------------------1------3---3------1---8--8--8-|
D|---1------------------3----------------------3------1----------1---1-------|
A|---3------------------4-------------------3---------1----------4-----------|
E|---4--------------------------------------1--------------------------------|
 
    Ab                 Db                  Fm        Eb         Db   v  v  v
e|---4--------8---------1--------8-------------4----------4------4---1--1--1-|
B|---4---4//9----9~~----4---4//9----9~~--------4----------4------4---2--2--1-|
G|---1------------------1----------------------1------3---3------1---1--1--1-|
D|---1------------------3----------------------3------1----------1---1--1----|
A|---3------------------4-------------------3---------1----------4---4-------|
E|---4--------------------------------------1--------------------------------|
 
 
 
[Bridge] 2:38
 
     Ab  (Db)  (Ab)  (Db)       (Ab)  (Db) (Ab) (Db)
e|---4------------4----------------------------------------6-------6---|
B|---4------------4-----6~~--4~~~------------------------9-------9-----|
G|---1------------1------------------------------------8-------8-------|
D|---1-----------------------------------------------6-------6---------|
A|---3---------volume-swell-these!-------------------------------------|
E|---4-----------------------------------------------------------------|
 
 
   (Ab)        (Db)           (Fm) (Em)    (Db)
e|--------6------------6------------6------------6-------6-------8-------6--|
B|------9------------9------------9------------9-------9-------9-------9----|
G|----8----x4------6----x4------8---x4-------6-------6-------6-------6------|
D|--6------------6------------6------------6-------6-------6-------6--------|
A|--------------------------------------------------------------------------|
E|--------------------------------------------------------------------------|
 
   (Ab)        (Db)                             (Fm) (Em)   (Db)
e|--------6----------6-------6-------8-------6--------6------6---6-6-6-6-6-6-6-|
B|------9----------9-------9-------9-------9--------9--------9---9-9-9-9-9-9-9-|
G|----8---x4-----6-------6-------6-------6--------8----x4----6---6-6-6-6-6-6-6-|
D|--6----------6-------6-------6-------6--------6------------6---6-6-6-6-6-6-6-|
A|-----------------------------------------------------------------------------|
E|-----------------------------------------------------------------------------|
 
 
[Chorus 3] 3:51
 
    (Ab)    (Db)       (Fm)         (Eb)        (Db)
e|---8-----------------------------------------------------------------|
B|---9-Strum-a-lot!------18-18-18~~~16-16-16~~-14-14---14-14----14~~~--|
G|---8-----------------------------------------------13------13--------|
D|---------------------------------------------------------------------|
A|---------------------------------------------------------------------|
E|---------------------------------------------------------------------|
 
    Ab                 Db                  Fm        Eb         Db   v  v  v
e|---4--------8---------1--------8-------------4----------4------4---1--1--1-|
B|---4---4//9----9~~----4---4//9----9~~--------4----------4------4---2--2--1-|
G|---1------------------1----------------------1------3---3------1---1--1--1-|
D|---1------------------3----------------------3------1----------1---1--1----|
A|---3------------------4-------------------3---------1----------4---4-------|
E|---4--------------------------------------1--------------------------------|
 
 
[Outro] 4:28
    (Ab)             (Db) (Fm) (Eb)    (Db)
e|-----------------------------------------------------------------------|
B|-----16-----16~~~--14-13~~--------14-14-14~~13~~-14-14-14~~13~~~-------|
G|--13-----13-----13----------x3----13-13-13~~13~~-13-13-13~~13~~--------|
D|-----------------------------------------------------------------------|
A|-----------------------------------------------------------------------|
E|-----------------------------------------------------------------------|
 
    (Ab)             (Db) (Fm) (Eb)    (Db)
e|----------------------------------------------------------------|
B|-----16-----16~~~--14-13~~----16-----16~~~--14-13~~-16----------|
G|--13-----13-----13---------13-----13-----13------------13-------|
D|----------------------------------------------------------------|
A|---------------------------------------------------pickup!..----|
E|----------------------------------------------------------------|
 
    (Db)   (Fm)    (Em)            (Db)                           Ab
e|---13~----------------------------------------------------------4~~--|
B|----------16~-----14~----13~~~--14-14-14--13~~-14-14-14--14~~---4~~--|
G|-------13------13-----13--------13-13-13--13~~-13-13-13--13~~---1~~--|
D|----------------------------------------------------------------1~~--|
A|----------------------------------------------------------------3~~--|
E|----------------------------------------------------------------4~~--|
            
Submit corrections

↑ Back to top | Tablatures and chords for acoustic guitar and electric guitar, ukulele, drums are parodies/interpretations of the original songs. You may use it for private study, scholarship, research or language learning purposes only