Home » P » Passion »

Passion - Nothing Tabs

Artists:  A B C D E F G H I J K L M N O P Q R S T U V W X Y Z # 

Nothing Tabs

(ver. 1) Click to play this song!
Passion
CAPO 3

[Intro]

e|-------0-|--2----2--------------------|--1----1--4---4--7---7-|--7--5--3----|
B|------3--|--3----3-3---3----------3-5-|--0----0--3---3--6---6-|--6--5--3----|
G|---3/4---|--4----4-4---4-4---4-3/4----|--1----1--4---4--7---7-|--7--5--4----|
D|---------|--4------------4---4--------|-----------------------|-------------|
A|---------|----------------------------|-----------------------|-------------|
E|---------|--3--3-----3-----3----------|--0--0------0------0---|-------------|

e|-----------5--------------|--5----5-5----5--5-------------------------------|
B|--5----5--5----5------5---|--4----4-4----4--4-------------------------------|
G|--5----5-5-----5------5---|--5----5-5----5--5-------------------------------|
D|--5----5-------5------5---|-------------------------------------------------|
A|--------------------------|-------------------------------------------------|
E|--5--5-------5---5--5---5-|--5--5------5----5-------------------------------|
            
Submit corrections

↑ Back to top | Tablatures and chords for acoustic guitar and electric guitar, ukulele, drums are parodies/interpretations of the original songs. You may use it for private study, scholarship, research or language learning purposes only