» » »

Passenger - Wide Eyes Tabs

Artists:  A B C D E F G H I J K L M N O P Q R S T U V W X Y Z # 

Wide Eyes Tabs

(ver. 2) Click to play this song!
Passenger
 Rating:
1.9/5 (27 votes)

 Wide Eyes lessons Tabs too difficult? Try these video lessons and learn fast
 
                Intro
e|--------------------------|--------------------------|---------------------------|
B|----0-----0-----0-----0---|---0------0-----0-----0---|----0-----0-----0------0---|
G|------0-----0-----0-----0-|-----0------0-----0-----0-|------0-----0-----0-----0--|
D|--2-----4-----5-----0-----|--------------------0-----|--2-----4-----5-----12-----|
A|--------------------------|-3-----2p0----------------|---------------------------|
E|--------------------------|--------------3-----------|---------------------------|

e|----------------------------|--------------------------|--------------------------|
B|-----0------0-----0-----0---|----0-----0-----0-----0---|---0------0-----0-----0---|
G|-------0------0-----0-----0-|------0-----0-----0-----0-|-----0------0-----0-----0-|
D|--10-----10-----9-----9-----|--2-----4-----5-----0-----|--------------------0-----|
A|----------------------------|--------------------------|-3-----2p0----------------|
E|----------------------------|--------------------------|--------------3-----------|

e|--------------------------|--------------------------|-------------------------|
B|----1-----1-----0-----0---|----3-----3-----0-----0---|---0-----1-----0-----0---|
G|------0-----0-----0-----0-|------2-----2-----0-----0-|-----0-----0-----0-----0-|
D|--------2-----------------|--0-----0-----------0-----|-0-----------------0-----|
A|--3-----------------2-----|--------------------------|-------3-----------------|
E|--------------3-----------|--------------3-----------|-------------3-----------|


e|-------------------------|--------------------------|--------------------------|
B|---0-----3-----0-----0---|---0-----1-----0-----0----|---0-----0----------------|
G|-----0-----2-----0-----0-|-----0-----0-----0-----0--|-----0-----0--------------|
D|-0-----0-----------0-----|-0-----------0-----0------|-0-----0------------------|
A|-------------------------|-------3------------------|--------------------------|
E|-------------3-----------|--------------------------|--------------------------|

Verse 1 (0:21)
e|-------------------------|-------------------------|-------------------------|
B|---0-----0-----0-----0---|---1-----1-----0-----0---|---0-----0-----0-----0---|
G|-----0-----0-----0-----0-|-----0-----0-----0-----0-|-----0-----0-----0-----0-|
D|-------2-----------------|-------2-----------------|-------2-----------------|
A|-------------------2-----|-3-----------------2-----|-------------------2-----|
E|-0-----------3-----------|-------------3-----------|-0-----------3-----------|
  Well I've not seen          Alaskan white             And I've not seen

e|-------------------------|-------------------------|-------------------------|
B|---1-----1-----0-----0---|---0-----0-----0-----0---|---1-----1-----0-----0---|
G|-----0-----0-----0-----0-|-----0-----0-----0-----0-|-----0-----0-----0-----0-|
D|-------2-----------------|-------2-----------------|-------2-----------------|
A|-3-----------------2-----|-------------------2-----|-3-----------------2-----|
E|-------------3-----------|-0-----------3-----------|-------------3-----------|
   Tokyo by night             And I've not seen         the northern lights

e|-------------------------|-------------------------|-------------------------|
B|---1-----1-----0-----0---|---3-----3-----0-----0---|---0-----1-----0-----0---|
G|-----0-----0-----0-----0-|-----2-----2-----0-----0-|-----0-----0-----0-----0-|
D|-------2-----------------|-0-----0-----------------|-0-----------------0-----|
A|-3-----------------2-----|-------------------2-----|-------3-----------------|
E|-------------3-----------|-------------3-----------|-------------3-----------|
    But I have seen your      wide eyes tonight

e|-------------------------|--------------------------|--------------------------|
B|---0-----3-----0-----0---|---0-----1-----0-----0----|---0-----0----------------|
G|-----0-----2-----0-----0-|-----0-----0-----0-----0--|-----0-----0--------------|
D|-0-----0-----------0-----|-0-----------0-----0------|-0-----0------------------|
A|-------------------------|-------3------------------|--------------------------|
E|-------------3-----------|--------------------------|--------------------------|

Verse 2 (0:43)
e|-------------------------|-------------------------|-------------------------|
B|---0-----0-----0-----0---|---1-----1-----0-----0---|---0-----0-----0-----0---|
G|-----0-----0-----0-----0-|-----0-----0-----0-----0-|-----0-----0-----0-----0-|
D|-------2-----------------|-------2-----------------|-------2-----------------|
A|-------------------2-----|-3-----------------2-----|-------------------2-----|
E|-0-----------3-----------|-------------3-----------|-0-----------3-----------|
   And I've not done          all I could've done       And I have walked when

e|-------------------------|-------------------------|-------------------------|
B|---1-----1-----0-----0---|---0-----0-----0-----0---|---1-----1-----0-----0---|
G|-----0-----0-----0-----0-|-----0-----0-----0-----0-|-----0-----0-----0-----0-|
D|-------2-----------------|-------2-----------------|-------2-----------------|
A|-3-----------------2-----|-------------------2-----|-3-----------------2-----|
E|-------------3-----------|-0-----------3-----------|-------------3-----------|
    I could've run            And I have lost all       I could've won

e|-------------------------|-------------------------|-------------------------|-------------|
B|---1-----1-----0-----0---|---3-----3-----0-----0---|---0-----1-----0-----0---|---0-----0---|
G|-----0-----0-----0-----0-|-----2-----2-----0-----0-|-----0-----0-----0-----0-|-----0-----0-|
D|-------2-----------------|-0-----0-----------------|-0-----------------0-----|-0-----0-----|
A|-3-----------------2-----|-------------------2-----|-------3-----------------|-------------|
E|-------------3-----------|-------------3-----------|-------------3-----------|-------------|
    But your wide eyes        reflect and move on

Interlude (1:00)
e|--------------------------|--------------------------|---------------------------|
B|----0-----0-----0-----0---|---0------0-----0-----0---|----0-----0-----0------0---|
G|------0-----0-----0-----0-|-----0------0-----0-----0-|------0-----0-----0-----0--|
D|--2-----4-----5-----0-----|--------------------0-----|--2-----4-----5-----12-----|
A|--------------------------|-3-----2p0----------------|---------------------------|
E|--------------------------|--------------3-----------|---------------------------|

e|----------------------------|--------------------------|--------------------------|
B|-----0------0-----0-----0---|----0-----0-----0-----0---|---0------0-----0-----0---|
G|-------0------0-----0-----0-|------0-----0-----0-----0-|-----0------0-----0-----0-|
D|--10-----10-----9-----9-----|--2-----4-----5-----0-----|--------------------0-----|
A|----------------------------|--------------------------|-3-----2p0----------------|
E|----------------------------|--------------------------|--------------3-----------|

e|--------------------------|--------------------------|-------------------------|
B|----1-----1-----0-----0---|----3-----3-----0-----0---|---0-----1-----0-----0---|
G|------0-----0-----0-----0-|------2-----2-----0-----0-|-----0-----0-----0-----0-|
D|--------2-----------------|--0-----0-----------0-----|-0-----------------0-----|
A|--3-----------------2-----|--------------------------|-------3-----------------|
E|--------------3-----------|--------------3-----------|-------------3-----------|

e|-------------------------|--------------------------|--------------------------|
B|---0-----3-----0-----0---|---0-----1-----0-----0----|---0-----0----------------|
G|-----0-----2-----0-----0-|-----0-----0-----0-----0--|-----0-----0--------------|
D|-0-----0-----------0-----|-0-----------0-----0------|-0-----0------------------|
A|-------------------------|-------3------------------|--------------------------|
E|-------------3-----------|--------------------------|--------------------------|

Verse 3 (1:22)
e|-------------------------|-------------------------|-------------------------|
B|---0-----0-----0-----0---|---1-----1-----0-----0---|---0-----0-----0-----0---|
G|-----0-----0-----0-----0-|-----0-----0-----0-----0-|-----0-----0-----0-----0-|
D|-------2-----------------|-------2-----------------|-------2-----------------|
A|-------------------2-----|-3-----------------2-----|-------------------2-----|
E|-0-----------3-----------|-------------3-----------|-0-----------3-----------|
   And I have found           a hole in my coat         And I have found

e|-------------------------|-------------------------|-------------------------|
B|---1-----1-----0-----0---|---0-----0-----0-----0---|---1-----1-----0-----0---|
G|-----0-----0-----0-----0-|-----0-----0-----0-----0-|-----0-----0-----0-----0-|
D|-------2-----------------|-------2-----------------|-------2-----------------|
A|-3-----------------2-----|-------------------2-----|-3-----------------2-----|
E|-------------3-----------|-0-----------3-----------|-------------3-----------|
    a lump in my throat       And I have laughed at      all my own jokes but

e|-------------------------|-------------------------|-------------------------|-------------|
B|---1-----1-----0-----0---|---3-----3-----0-----0---|---0-----1-----0-----0---|---0-----0---|
G|-----0-----0-----0-----0-|-----2-----2-----0-----0-|-----0-----0-----0-----0-|-----0-----0-|
D|-------2-----------------|-0-----0-----------------|-0-----------------0-----|-0-----0-----|
A|-3-----------------2-----|-------------------2-----|-------3-----------------|-------------|
E|-------------3-----------|-------------3-----------|-------------3-----------|-------------|
   your wide eyes are like    water to a boat

Verse 4 (1:40)
e|-------------------------|-------------------------|-------------------------|
B|---0-----0-----0-----0---|---1-----1-----0-----0---|---0-----0-----0-----0---|
G|-----0-----0-----0-----0-|-----0-----0-----0-----0-|-----0-----0-----0-----0-|
D|-------2-----------------|-------2-----------------|-------2-----------------|
A|-------------------2-----|-3-----------------2-----|-------------------2-----|
E|-0-----------3-----------|-------------3-----------|-0-----------3-----------|
   And I have never          packed my case            Gone underground

e|-------------------------|-------------------------|-------------------------|
B|---1-----1-----0-----0---|---0-----0-----0-----0---|---1-----1-----0-----0---|
G|-----0-----0-----0-----0-|-----0-----0-----0-----0-|-----0-----0-----0-----0-|
D|-------2-----------------|-------2-----------------|-------2-----------------|
A|-3-----------------2-----|-------------------2-----|-3-----------------2-----|
E|-------------3-----------|-0-----------3-----------|-------------3-----------|
   or out into space          When my gaze rests        heavy on your face

e|-------------------------|-------------------------|-------------------------|
B|---1-----1-----0-----0---|---3-----3-----0-----0---|---1-----1-----0-----0---|
G|-----0-----0-----0-----0-|-----2-----2-----0-----0-|-----0-----0-----0-----0-|
D|-------2-----------------|-0-----0-----------------|-------2-----------------|
A|-3-----------------2-----|-------------------2-----|-3-----------------2-----|
E|-------------3-----------|-------------3-----------|-------------3-----------|
   Well, your wide eyes       are my favorite place    Well yeah, your wide eyes

e|-------------------------|-------------------------|-------------------------|
B|---3-----3-----0-----0---|---0-----1-----0-----0---|---0-----3-----0-----0---|
G|-----2-----2-----0-----0-|-----0-----0-----0-----0-|-----0-----2-----0-----0-|
D|-0-----0-----------------|-0-----------------0-----|-0-----0-----------0-----|
A|-------------------2-----|-------3-----------------|-------------------------|
E|-------------3-----------|-------------3-----------|-------------3-----------|
   are my favorite place

e|--------------------------|------------------|
B|---0-----1-----0-----0----|------------------|
G|-----0-----0-----0-----0--|------------------|
D|-0-----------0-----0------|-0----------------|
A|-------3------------------|------------------|
E|--------------------------|------------------|
            
Submit corrections


        Wide Eyes lessons Hard to play? Try these video lessons and learn fast Wide Eyes lessons
        
↑ Back to top | Tablatures and chords for acoustic guitar and electric guitar, ukulele, drums are parodies/interpretations of the original songs. You may use it for private study, scholarship, research or language learning purposes only