» » »

Passenger - Staring At The Sky Tabs

Artists:  A B C D E F G H I J K L M N O P Q R S T U V W X Y Z # 

Staring At The Sky Tabs

(ver. 2) Click to play this song!
Passenger
 Rating:
4/5 (4 votes)
                Capo 3

Intro

E|-----------------------------------------------------------------------------------------|
B|-----------------------------------------------------------------------------------------|
G|-------0h2-2p4--2p0--2p0-----0-------------0h2--2p4---2p0---2p0----0--0p2--2----0p2--2p4-|
D|---0-----------------------2-------0h2---------------------------2----0------0-------0---|
A|--------------------------------3------3--------3-----------3----------------------------|
E|-3---3-----3---------3-------------------------------------------------------------------|


E|--------------------------------------------------------------------------------------|
B|--------------------0--------0h1-----------1------0-----------------------------------|
G|--2p0-2p0----0-----------0--------------0----0----0-----------------------------------|
D|------0----2--------0--------0h2------2-----------------------------------------------|
A|--------------------------------------------------------------------------------------|
E|------------------3----3-----------3------------3----3--------------------------------|


E|-------------------------------------------------------------------------------------------|
B|-------------------------------------------------------------------------------------------|
G|-------0h2-2p4--2p0--2p0-----0-------------0h2--2p4---2p0---2p0----0--0p2-------0p2--2p4---|
D|---------------------------2-------0h2---------------------------2----0------0-------0-----|
A|--------------------------------3------3--------3-----------3------------------------------|
E|-----------3---------3---------------------------------------------------------------------|


E|---------------------------------------------------------------------------------------|
B|---3------------------------0---------0h1----------1------0----------------------------|
G|------4---2----4p2p0--------0------0------------0----0----0----------------------------|
D|----------------------2---------------0h2-----2----------------------------------------|
A|---------------------------------------------------------------------------------------|
E|----------------------------3-----3---------3-----------3----3-------------------------|


D - x5403x

Verse1:
G                               C
  Well she laughs just like the rain
D                            G          
  Never know when it's gonna fall
G                      C
  If it ever will come again
D                       G           
  Or if it ever came at all


G C D


Chorus1:
G                Bm
  I can spend my life
C      D              Em        
  Just staring at the sky
G                          C
  She laughs just like the rain
D                    G        
  I've never felt so dry

Verse2:
G                 C
  I'm just like a train
D                           G         
  Never stop and never slow down
G                       C
  Sing the same songs everyday
D                             G         
  Just sing'em in a different town

Chorus2:
G                   Bm
  She can spend her life
C     D                    Em         
  Waiting for the train to come
G                      C
  Well I'm just like a train
D                       G          
  With no more track to run
            
Submit corrections

↑ Back to top | Tablatures and chords for acoustic guitar and electric guitar, ukulele, drums are parodies/interpretations of the original songs. You may use it for private study, scholarship, research or language learning purposes only