» » »

Passenger - Simple Song intro Tabs

Artists:  A B C D E F G H I J K L M N O P Q R S T U V W X Y Z # 

Simple Song intro Tabs

(ver. 1) Click to play this song!
Passenger
 Rating:
4.3/5 (10 votes)

 Simple Song intro lessons Tabs too difficult? Try these video lessons and learn fast
 
                [Intro]
   F           C                       G                 C
e|-----------3---0-|-----------------|-----------------|-0---------------|
B|-------1---------|-----1---------1-|-1h3-------1-----|-----1---1h3p1---|
G|-0h2-------------|-----------0-----|-------0-------0-|-----------------|
D|-----3-----------|-----2-------2---|-----0---0---0---|-----2---2-------|
A|-----------0---3-|-----------------|-----------------|-3-----------3---|
E|-1---------------|-----------------|-3---------------|-----------------|

   F                 C                 G
e|-----------------|-----0-----------|-----------------|-----------------|
B|-------1-------1-|---------------1-|-1h3-------3-----|-----3---------3-|
G|-0h2-------0-----|-----------0-----|-------0-------0-|-----------0-----|
D|-------3-----3---|-----2-------2---|-----0---0---0---|-----0-------0---|
A|-----------------|-3-------3-------|-----------------|-----------------|
E|-1---------------|-----------------|-3---------------|-3-------3-------|            
Submit corrections


        Simple Song intro lessons Hard to play? Try these video lessons and learn fast Simple Song intro lessons
        
↑ Back to top | Tablatures and chords for acoustic guitar and electric guitar, ukulele, drums are parodies/interpretations of the original songs. You may use it for private study, scholarship, research or language learning purposes only